ISO-10303-21;
HEADER;
/* Generated by software containing ST-Developer
 * from STEP Tools, Inc. (www.steptools.com) 
 */
/* OPTION: using custom renumber hook */

FILE_DESCRIPTION(
/* description */ ('STEP AP214'),
/* implementation_level */ '2;1');

FILE_NAME(
/* name */ 'X0164030',
/* time_stamp */ '2023-05-10T10:37:29+02:00',
/* author */ ('License CC BY-ND 4.0'),
/* organization */ ('CADENAS'),
/* preprocessor_version */ 'ST-DEVELOPER v19.3',
/* originating_system */ 'PARTsolutions',
/* authorisation */ '  ');

FILE_SCHEMA (('AUTOMOTIVE_DESIGN {1 0 10303 214 3 1 1}'));
ENDSEC;

DATA;
#10=PROPERTY_DEFINITION_REPRESENTATION(#14,#12);
#11=PROPERTY_DEFINITION_REPRESENTATION(#15,#13);
#12=REPRESENTATION('',(#16),#607);
#13=REPRESENTATION('',(#17),#607);
#14=PROPERTY_DEFINITION('pmi validation property','',#614);
#15=PROPERTY_DEFINITION('pmi validation property','',#614);
#16=VALUE_REPRESENTATION_ITEM('number of annotations',COUNT_MEASURE(0.));
#17=VALUE_REPRESENTATION_ITEM('number of views',COUNT_MEASURE(0.));
#18=CONTEXT_DEPENDENT_SHAPE_REPRESENTATION(#20,#616);
#19=NEXT_ASSEMBLY_USAGE_OCCURRENCE('NAUO1','X0164030_PART1',
'X0164030_PART1',#617,#618,'');
#20=(
REPRESENTATION_RELATIONSHIP(' ',' ',#345,#344)
REPRESENTATION_RELATIONSHIP_WITH_TRANSFORMATION(#21)
SHAPE_REPRESENTATION_RELATIONSHIP()
);
#21=ITEM_DEFINED_TRANSFORMATION(' ',' ',#346,#403);
#22=SHAPE_REPRESENTATION_RELATIONSHIP('','',#345,#23);
#23=ADVANCED_BREP_SHAPE_REPRESENTATION('',(#341),#608);
#24=TOROIDAL_SURFACE('',#396,0.0048,0.0002);
#25=TOROIDAL_SURFACE('',#397,0.00585,0.0002);
#26=PLANE('',#376);
#27=PLANE('',#377);
#28=PLANE('',#378);
#29=PLANE('',#380);
#30=PLANE('',#390);
#31=PLANE('',#391);
#32=CONICAL_SURFACE('',#350,0.006,0.7853981634);
#33=CONICAL_SURFACE('',#355,0.006,0.7853981634);
#34=CONICAL_SURFACE('',#357,0.00575,0.7853981634);
#35=CONICAL_SURFACE('',#360,0.004475,0.5235987756);
#36=CONICAL_SURFACE('',#365,0.00345,0.5235987756);
#37=CONICAL_SURFACE('',#371,1.7320508076,1.0471975512);
#38=CONICAL_SURFACE('',#374,0.007,0.7853981634);
#39=CONICAL_SURFACE('',#383,0.00675,0.7853981634);
#40=CONICAL_SURFACE('',#395,0.007,0.7853981634);
#41=CONICAL_SURFACE('',#400,1.7320508076,1.0471975512);
#42=ORIENTED_EDGE('',*,*,#98,.T.);
#43=ORIENTED_EDGE('',*,*,#99,.F.);
#44=ORIENTED_EDGE('',*,*,#100,.F.);
#45=ORIENTED_EDGE('',*,*,#99,.T.);
#46=ORIENTED_EDGE('',*,*,#101,.T.);
#47=ORIENTED_EDGE('',*,*,#102,.F.);
#48=ORIENTED_EDGE('',*,*,#103,.F.);
#49=ORIENTED_EDGE('',*,*,#102,.T.);
#50=ORIENTED_EDGE('',*,*,#104,.T.);
#51=ORIENTED_EDGE('',*,*,#105,.F.);
#52=ORIENTED_EDGE('',*,*,#106,.T.);
#53=ORIENTED_EDGE('',*,*,#107,.F.);
#54=ORIENTED_EDGE('',*,*,#105,.T.);
#55=ORIENTED_EDGE('',*,*,#108,.F.);
#56=ORIENTED_EDGE('',*,*,#109,.T.);
#57=ORIENTED_EDGE('',*,*,#110,.F.);
#58=ORIENTED_EDGE('',*,*,#111,.T.);
#59=ORIENTED_EDGE('',*,*,#112,.T.);
#60=ORIENTED_EDGE('',*,*,#113,.F.);
#61=ORIENTED_EDGE('',*,*,#114,.F.);
#62=ORIENTED_EDGE('',*,*,#115,.T.);
#63=ORIENTED_EDGE('',*,*,#98,.F.);
#64=ORIENTED_EDGE('',*,*,#110,.T.);
#65=ORIENTED_EDGE('',*,*,#104,.F.);
#66=ORIENTED_EDGE('',*,*,#112,.F.);
#67=ORIENTED_EDGE('',*,*,#100,.T.);
#68=ORIENTED_EDGE('',*,*,#116,.F.);
#69=ORIENTED_EDGE('',*,*,#108,.T.);
#70=ORIENTED_EDGE('',*,*,#117,.F.);
#71=ORIENTED_EDGE('',*,*,#118,.F.);
#72=ORIENTED_EDGE('',*,*,#119,.T.);
#73=ORIENTED_EDGE('',*,*,#120,.F.);
#74=ORIENTED_EDGE('',*,*,#121,.T.);
#75=ORIENTED_EDGE('',*,*,#117,.T.);
#76=ORIENTED_EDGE('',*,*,#120,.T.);
#77=ORIENTED_EDGE('',*,*,#122,.F.);
#78=ORIENTED_EDGE('',*,*,#107,.T.);
#79=ORIENTED_EDGE('',*,*,#119,.F.);
#80=ORIENTED_EDGE('',*,*,#123,.F.);
#81=ORIENTED_EDGE('',*,*,#122,.T.);
#82=ORIENTED_EDGE('',*,*,#103,.T.);
#83=ORIENTED_EDGE('',*,*,#115,.F.);
#84=ORIENTED_EDGE('',*,*,#109,.F.);
#85=ORIENTED_EDGE('',*,*,#114,.T.);
#86=ORIENTED_EDGE('',*,*,#118,.T.);
#87=ORIENTED_EDGE('',*,*,#101,.F.);
#88=ORIENTED_EDGE('',*,*,#111,.F.);
#89=ORIENTED_EDGE('',*,*,#116,.T.);
#90=ORIENTED_EDGE('',*,*,#121,.F.);
#91=ORIENTED_EDGE('',*,*,#123,.T.);
#92=ORIENTED_EDGE('',*,*,#113,.T.);
#93=ORIENTED_EDGE('',*,*,#124,.T.);
#94=ORIENTED_EDGE('',*,*,#124,.F.);
#95=ORIENTED_EDGE('',*,*,#125,.T.);
#96=ORIENTED_EDGE('',*,*,#125,.F.);
#97=ORIENTED_EDGE('',*,*,#106,.F.);
#98=EDGE_CURVE('',#126,#126,#154,.T.);
#99=EDGE_CURVE('',#127,#127,#155,.T.);
#100=EDGE_CURVE('',#128,#128,#156,.T.);
#101=EDGE_CURVE('',#129,#129,#157,.T.);
#102=EDGE_CURVE('',#130,#130,#158,.T.);
#103=EDGE_CURVE('',#131,#131,#159,.T.);
#104=EDGE_CURVE('',#132,#132,#160,.T.);
#105=EDGE_CURVE('',#133,#133,#161,.T.);
#106=EDGE_CURVE('',#134,#134,#162,.T.);
#107=EDGE_CURVE('',#135,#135,#163,.T.);
#108=EDGE_CURVE('',#136,#136,#164,.T.);
#109=EDGE_CURVE('',#137,#137,#165,.T.);
#110=EDGE_CURVE('',#138,#138,#166,.T.);
#111=EDGE_CURVE('',#139,#139,#167,.T.);
#112=EDGE_CURVE('',#140,#140,#168,.T.);
#113=EDGE_CURVE('',#141,#141,#169,.T.);
#114=EDGE_CURVE('',#142,#142,#170,.T.);
#115=EDGE_CURVE('',#143,#143,#171,.T.);
#116=EDGE_CURVE('',#144,#144,#172,.T.);
#117=EDGE_CURVE('',#145,#145,#173,.T.);
#118=EDGE_CURVE('',#146,#146,#174,.T.);
#119=EDGE_CURVE('',#147,#147,#175,.T.);
#120=EDGE_CURVE('',#148,#148,#176,.T.);
#121=EDGE_CURVE('',#149,#149,#177,.T.);
#122=EDGE_CURVE('',#150,#150,#178,.T.);
#123=EDGE_CURVE('',#151,#151,#179,.T.);
#124=EDGE_CURVE('',#152,#152,#180,.T.);
#125=EDGE_CURVE('',#153,#153,#181,.T.);
#126=VERTEX_POINT('',#523);
#127=VERTEX_POINT('',#525);
#128=VERTEX_POINT('',#528);
#129=VERTEX_POINT('',#531);
#130=VERTEX_POINT('',#533);
#131=VERTEX_POINT('',#536);
#132=VERTEX_POINT('',#539);
#133=VERTEX_POINT('',#541);
#134=VERTEX_POINT('',#544);
#135=VERTEX_POINT('',#546);
#136=VERTEX_POINT('',#549);
#137=VERTEX_POINT('',#552);
#138=VERTEX_POINT('',#554);
#139=VERTEX_POINT('',#557);
#140=VERTEX_POINT('',#559);
#141=VERTEX_POINT('',#562);
#142=VERTEX_POINT('',#564);
#143=VERTEX_POINT('',#567);
#144=VERTEX_POINT('',#572);
#145=VERTEX_POINT('',#575);
#146=VERTEX_POINT('',#577);
#147=VERTEX_POINT('',#580);
#148=VERTEX_POINT('',#582);
#149=VERTEX_POINT('',#585);
#150=VERTEX_POINT('',#588);
#151=VERTEX_POINT('',#592);
#152=VERTEX_POINT('',#600);
#153=VERTEX_POINT('',#603);
#154=CIRCLE('',#348,0.007);
#155=CIRCLE('',#349,0.007);
#156=CIRCLE('',#351,0.006);
#157=CIRCLE('',#353,0.007);
#158=CIRCLE('',#354,0.007);
#159=CIRCLE('',#356,0.006);
#160=CIRCLE('',#358,0.00545);
#161=CIRCLE('',#359,0.00575);
#162=CIRCLE('',#361,0.004075);
#163=CIRCLE('',#362,0.004475);
#164=CIRCLE('',#364,0.00575);
#165=CIRCLE('',#366,0.003075);
#166=CIRCLE('',#367,0.00345);
#167=CIRCLE('',#369,0.0048);
#168=CIRCLE('',#370,0.0048);
#169=CIRCLE('',#372,0.0025);
#170=CIRCLE('',#373,0.003075);
#171=CIRCLE('',#375,0.006);
#172=CIRCLE('',#379,0.0048);
#173=CIRCLE('',#381,0.00585);
#174=CIRCLE('',#382,0.0067);
#175=CIRCLE('',#384,0.00645);
#176=CIRCLE('',#385,0.00675);
#177=CIRCLE('',#387,0.00585);
#178=CIRCLE('',#389,0.00675);
#179=CIRCLE('',#392,0.00585);
#180=CIRCLE('',#399,0.0025);
#181=CIRCLE('',#401,0.004075);
#182=EDGE_LOOP('',(#42));
#183=EDGE_LOOP('',(#43));
#184=EDGE_LOOP('',(#44));
#185=EDGE_LOOP('',(#45));
#186=EDGE_LOOP('',(#46));
#187=EDGE_LOOP('',(#47));
#188=EDGE_LOOP('',(#48));
#189=EDGE_LOOP('',(#49));
#190=EDGE_LOOP('',(#50));
#191=EDGE_LOOP('',(#51));
#192=EDGE_LOOP('',(#52));
#193=EDGE_LOOP('',(#53));
#194=EDGE_LOOP('',(#54));
#195=EDGE_LOOP('',(#55));
#196=EDGE_LOOP('',(#56));
#197=EDGE_LOOP('',(#57));
#198=EDGE_LOOP('',(#58));
#199=EDGE_LOOP('',(#59));
#200=EDGE_LOOP('',(#60));
#201=EDGE_LOOP('',(#61));
#202=EDGE_LOOP('',(#62));
#203=EDGE_LOOP('',(#63));
#204=EDGE_LOOP('',(#64));
#205=EDGE_LOOP('',(#65));
#206=EDGE_LOOP('',(#66));
#207=EDGE_LOOP('',(#67));
#208=EDGE_LOOP('',(#68));
#209=EDGE_LOOP('',(#69));
#210=EDGE_LOOP('',(#70));
#211=EDGE_LOOP('',(#71));
#212=EDGE_LOOP('',(#72));
#213=EDGE_LOOP('',(#73));
#214=EDGE_LOOP('',(#74));
#215=EDGE_LOOP('',(#75));
#216=EDGE_LOOP('',(#76));
#217=EDGE_LOOP('',(#77));
#218=EDGE_LOOP('',(#78));
#219=EDGE_LOOP('',(#79));
#220=EDGE_LOOP('',(#80));
#221=EDGE_LOOP('',(#81));
#222=EDGE_LOOP('',(#82));
#223=EDGE_LOOP('',(#83));
#224=EDGE_LOOP('',(#84));
#225=EDGE_LOOP('',(#85));
#226=EDGE_LOOP('',(#86));
#227=EDGE_LOOP('',(#87));
#228=EDGE_LOOP('',(#88));
#229=EDGE_LOOP('',(#89));
#230=EDGE_LOOP('',(#90));
#231=EDGE_LOOP('',(#91));
#232=EDGE_LOOP('',(#92));
#233=EDGE_LOOP('',(#93));
#234=EDGE_LOOP('',(#94));
#235=EDGE_LOOP('',(#95));
#236=EDGE_LOOP('',(#96));
#237=EDGE_LOOP('',(#97));
#238=FACE_BOUND('',#182,.T.);
#239=FACE_BOUND('',#183,.T.);
#240=FACE_BOUND('',#184,.T.);
#241=FACE_BOUND('',#185,.T.);
#242=FACE_BOUND('',#186,.T.);
#243=FACE_BOUND('',#187,.T.);
#244=FACE_BOUND('',#188,.T.);
#245=FACE_BOUND('',#189,.T.);
#246=FACE_BOUND('',#190,.T.);
#247=FACE_BOUND('',#191,.T.);
#248=FACE_BOUND('',#192,.T.);
#249=FACE_BOUND('',#193,.T.);
#250=FACE_BOUND('',#194,.T.);
#251=FACE_BOUND('',#195,.T.);
#252=FACE_BOUND('',#196,.T.);
#253=FACE_BOUND('',#197,.T.);
#254=FACE_BOUND('',#198,.T.);
#255=FACE_BOUND('',#199,.T.);
#256=FACE_BOUND('',#200,.T.);
#257=FACE_BOUND('',#201,.T.);
#258=FACE_BOUND('',#202,.T.);
#259=FACE_BOUND('',#203,.T.);
#260=FACE_BOUND('',#204,.T.);
#261=FACE_BOUND('',#205,.T.);
#262=FACE_BOUND('',#206,.T.);
#263=FACE_BOUND('',#207,.T.);
#264=FACE_BOUND('',#208,.T.);
#265=FACE_BOUND('',#209,.T.);
#266=FACE_BOUND('',#210,.T.);
#267=FACE_BOUND('',#211,.T.);
#268=FACE_BOUND('',#212,.T.);
#269=FACE_BOUND('',#213,.T.);
#270=FACE_BOUND('',#214,.T.);
#271=FACE_BOUND('',#215,.T.);
#272=FACE_BOUND('',#216,.T.);
#273=FACE_BOUND('',#217,.T.);
#274=FACE_BOUND('',#218,.T.);
#275=FACE_BOUND('',#219,.T.);
#276=FACE_BOUND('',#220,.T.);
#277=FACE_BOUND('',#221,.T.);
#278=FACE_BOUND('',#222,.T.);
#279=FACE_BOUND('',#223,.T.);
#280=FACE_BOUND('',#224,.T.);
#281=FACE_BOUND('',#225,.T.);
#282=FACE_BOUND('',#226,.T.);
#283=FACE_BOUND('',#227,.T.);
#284=FACE_BOUND('',#228,.T.);
#285=FACE_BOUND('',#229,.T.);
#286=FACE_BOUND('',#230,.T.);
#287=FACE_BOUND('',#231,.T.);
#288=FACE_BOUND('',#232,.T.);
#289=FACE_BOUND('',#233,.T.);
#290=FACE_BOUND('',#234,.T.);
#291=FACE_BOUND('',#235,.T.);
#292=FACE_BOUND('',#236,.T.);
#293=FACE_BOUND('',#237,.T.);
#294=CYLINDRICAL_SURFACE('',#347,0.007);
#295=CYLINDRICAL_SURFACE('',#352,0.007);
#296=CYLINDRICAL_SURFACE('',#363,0.00575);
#297=CYLINDRICAL_SURFACE('',#368,0.0048);
#298=CYLINDRICAL_SURFACE('',#386,0.00585);
#299=CYLINDRICAL_SURFACE('',#388,0.00675);
#300=CYLINDRICAL_SURFACE('',#393,0.006);
#301=CYLINDRICAL_SURFACE('',#394,0.003075);
#302=CYLINDRICAL_SURFACE('',#398,0.0025);
#303=CYLINDRICAL_SURFACE('',#402,0.004075);
#304=ADVANCED_FACE('',(#238,#239),#294,.T.);
#305=ADVANCED_FACE('',(#240,#241),#32,.T.);
#306=ADVANCED_FACE('',(#242,#243),#295,.T.);
#307=ADVANCED_FACE('',(#244,#245),#33,.T.);
#308=ADVANCED_FACE('',(#246,#247),#34,.T.);
#309=ADVANCED_FACE('',(#248,#249),#35,.F.);
#310=ADVANCED_FACE('',(#250,#251),#296,.T.);
#311=ADVANCED_FACE('',(#252,#253),#36,.F.);
#312=ADVANCED_FACE('',(#254,#255),#297,.T.);
#313=ADVANCED_FACE('',(#256,#257),#37,.F.);
#314=ADVANCED_FACE('',(#258,#259),#38,.T.);
#315=ADVANCED_FACE('',(#260,#261),#26,.T.);
#316=ADVANCED_FACE('',(#262,#263),#27,.T.);
#317=ADVANCED_FACE('',(#264,#265),#28,.T.);
#318=ADVANCED_FACE('',(#266,#267),#29,.T.);
#319=ADVANCED_FACE('',(#268,#269),#39,.T.);
#320=ADVANCED_FACE('',(#270,#271),#298,.T.);
#321=ADVANCED_FACE('',(#272,#273),#299,.T.);
#322=ADVANCED_FACE('',(#274,#275),#30,.T.);
#323=ADVANCED_FACE('',(#276,#277),#31,.T.);
#324=ADVANCED_FACE('',(#278,#279),#300,.T.);
#325=ADVANCED_FACE('',(#280,#281),#301,.F.);
#326=ADVANCED_FACE('',(#282,#283),#40,.T.);
#327=ADVANCED_FACE('',(#284,#285),#24,.F.);
#328=ADVANCED_FACE('',(#286,#287),#25,.F.);
#329=ADVANCED_FACE('',(#288,#289),#302,.F.);
#330=ADVANCED_FACE('',(#290,#291),#41,.F.);
#331=ADVANCED_FACE('',(#292,#293),#303,.F.);
#332=CLOSED_SHELL('',(#304,#305,#306,#307,#308,#309,#310,#311,#312,#313,
#314,#315,#316,#317,#318,#319,#320,#321,#322,#323,#324,#325,#326,#327,#328,
#329,#330,#331));
#333=STYLED_ITEM('',(#334),#341);
#334=PRESENTATION_STYLE_ASSIGNMENT((#335));
#335=SURFACE_STYLE_USAGE(.BOTH.,#336);
#336=SURFACE_SIDE_STYLE('',(#337));
#337=SURFACE_STYLE_FILL_AREA(#338);
#338=FILL_AREA_STYLE('',(#339));
#339=FILL_AREA_STYLE_COLOUR('',#340);
#340=COLOUR_RGB('',0.6156862974,0.6431372762,0.6745098233);
#341=MANIFOLD_SOLID_BREP('NONE',#332);
#342=SHAPE_DEFINITION_REPRESENTATION(#614,#344);
#343=SHAPE_DEFINITION_REPRESENTATION(#615,#345);
#344=SHAPE_REPRESENTATION('X0164030',(#346,#403),#607);
#345=SHAPE_REPRESENTATION('X0164030_PART1',(#346),#608);
#346=AXIS2_PLACEMENT_3D('',#520,#404,#405);
#347=AXIS2_PLACEMENT_3D('',#521,#406,#407);
#348=AXIS2_PLACEMENT_3D('',#522,#408,#409);
#349=AXIS2_PLACEMENT_3D('',#524,#410,#411);
#350=AXIS2_PLACEMENT_3D('',#526,#412,#413);
#351=AXIS2_PLACEMENT_3D('',#527,#414,#415);
#352=AXIS2_PLACEMENT_3D('',#529,#416,#417);
#353=AXIS2_PLACEMENT_3D('',#530,#418,#419);
#354=AXIS2_PLACEMENT_3D('',#532,#420,#421);
#355=AXIS2_PLACEMENT_3D('',#534,#422,#423);
#356=AXIS2_PLACEMENT_3D('',#535,#424,#425);
#357=AXIS2_PLACEMENT_3D('',#537,#426,#427);
#358=AXIS2_PLACEMENT_3D('',#538,#428,#429);
#359=AXIS2_PLACEMENT_3D('',#540,#430,#431);
#360=AXIS2_PLACEMENT_3D('',#542,#432,#433);
#361=AXIS2_PLACEMENT_3D('',#543,#434,#435);
#362=AXIS2_PLACEMENT_3D('',#545,#436,#437);
#363=AXIS2_PLACEMENT_3D('',#547,#438,#439);
#364=AXIS2_PLACEMENT_3D('',#548,#440,#441);
#365=AXIS2_PLACEMENT_3D('',#550,#442,#443);
#366=AXIS2_PLACEMENT_3D('',#551,#444,#445);
#367=AXIS2_PLACEMENT_3D('',#553,#446,#447);
#368=AXIS2_PLACEMENT_3D('',#555,#448,#449);
#369=AXIS2_PLACEMENT_3D('',#556,#450,#451);
#370=AXIS2_PLACEMENT_3D('',#558,#452,#453);
#371=AXIS2_PLACEMENT_3D('',#560,#454,#455);
#372=AXIS2_PLACEMENT_3D('',#561,#456,#457);
#373=AXIS2_PLACEMENT_3D('',#563,#458,#459);
#374=AXIS2_PLACEMENT_3D('',#565,#460,#461);
#375=AXIS2_PLACEMENT_3D('',#566,#462,#463);
#376=AXIS2_PLACEMENT_3D('',#568,#464,#465);
#377=AXIS2_PLACEMENT_3D('',#569,#466,#467);
#378=AXIS2_PLACEMENT_3D('',#570,#468,#469);
#379=AXIS2_PLACEMENT_3D('',#571,#470,#471);
#380=AXIS2_PLACEMENT_3D('',#573,#472,#473);
#381=AXIS2_PLACEMENT_3D('',#574,#474,#475);
#382=AXIS2_PLACEMENT_3D('',#576,#476,#477);
#383=AXIS2_PLACEMENT_3D('',#578,#478,#479);
#384=AXIS2_PLACEMENT_3D('',#579,#480,#481);
#385=AXIS2_PLACEMENT_3D('',#581,#482,#483);
#386=AXIS2_PLACEMENT_3D('',#583,#484,#485);
#387=AXIS2_PLACEMENT_3D('',#584,#486,#487);
#388=AXIS2_PLACEMENT_3D('',#586,#488,#489);
#389=AXIS2_PLACEMENT_3D('',#587,#490,#491);
#390=AXIS2_PLACEMENT_3D('',#589,#492,#493);
#391=AXIS2_PLACEMENT_3D('',#590,#494,#495);
#392=AXIS2_PLACEMENT_3D('',#591,#496,#497);
#393=AXIS2_PLACEMENT_3D('',#593,#498,#499);
#394=AXIS2_PLACEMENT_3D('',#594,#500,#501);
#395=AXIS2_PLACEMENT_3D('',#595,#502,#503);
#396=AXIS2_PLACEMENT_3D('',#596,#504,#505);
#397=AXIS2_PLACEMENT_3D('',#597,#506,#507);
#398=AXIS2_PLACEMENT_3D('',#598,#508,#509);
#399=AXIS2_PLACEMENT_3D('',#599,#510,#511);
#400=AXIS2_PLACEMENT_3D('',#601,#512,#513);
#401=AXIS2_PLACEMENT_3D('',#602,#514,#515);
#402=AXIS2_PLACEMENT_3D('',#604,#516,#517);
#403=AXIS2_PLACEMENT_3D('',#605,#518,#519);
#404=DIRECTION('',(0.,0.,1.));
#405=DIRECTION('',(1.,0.,0.));
#406=DIRECTION('',(0.,1.,0.));
#407=DIRECTION('',(0.,0.,-1.));
#408=DIRECTION('',(0.,-1.,0.));
#409=DIRECTION('',(0.,0.,-1.));
#410=DIRECTION('',(0.,-1.,0.));
#411=DIRECTION('',(0.,0.,-1.));
#412=DIRECTION('',(0.,1.,0.));
#413=DIRECTION('',(0.,0.,1.));
#414=DIRECTION('',(0.,-1.,0.));
#415=DIRECTION('',(0.,0.,-1.));
#416=DIRECTION('',(0.,1.,0.));
#417=DIRECTION('',(0.,0.,-1.));
#418=DIRECTION('',(0.,-1.,0.));
#419=DIRECTION('',(0.,0.,-1.));
#420=DIRECTION('',(0.,-1.,0.));
#421=DIRECTION('',(0.,0.,-1.));
#422=DIRECTION('',(0.,1.,0.));
#423=DIRECTION('',(0.,0.,1.));
#424=DIRECTION('',(0.,-1.,0.));
#425=DIRECTION('',(0.,0.,-1.));
#426=DIRECTION('',(-1.75083948932278E-34,1.,4.06948231569077E-36));
#427=DIRECTION('',(-0.0232367589367448,-6.68191177523049E-52,-0.999729990064375));
#428=DIRECTION('',(-4.65929206378603E-14,1.,1.08296087521916E-15));
#429=DIRECTION('',(-0.0232367589367902,1.97215226305253E-31,-0.999729990064374));
#430=DIRECTION('',(-4.41619856480591E-14,1.,1.02645856868589E-15));
#431=DIRECTION('',(-0.0232367589367879,0.,-0.999729990064374));
#432=DIRECTION('',(0.,1.,0.));
#433=DIRECTION('',(-0.194159510977359,0.,0.980969971149491));
#434=DIRECTION('',(0.,-1.,0.));
#435=DIRECTION('',(0.194159510977407,0.,-0.980969971149481));
#436=DIRECTION('',(0.,-1.,0.));
#437=DIRECTION('',(0.194159510977402,0.,-0.980969971149482));
#438=DIRECTION('',(1.75083948932278E-34,-1.,-4.06948231569077E-36));
#439=DIRECTION('',(-0.0232367589367448,-6.68191177523049E-52,-0.999729990064375));
#440=DIRECTION('',(-4.41619856480591E-14,1.,1.02645856868589E-15));
#441=DIRECTION('',(-0.0232367589367879,0.,-0.999729990064374));
#442=DIRECTION('',(1.75083948932279E-34,-1.,-4.06948231569077E-36));
#443=DIRECTION('',(0.0232367589367448,0.,0.999729990064375));
#444=DIRECTION('',(-8.25793227565298E-14,1.,1.91939407152948E-15));
#445=DIRECTION('',(-0.0232367589368254,0.,-0.999729990064373));
#446=DIRECTION('',(-7.36033094134295E-14,1.,1.71076428114521E-15));
#447=DIRECTION('',(-0.0232367589368166,0.,-0.999729990064373));
#448=DIRECTION('',(1.75083948932278E-34,-1.,-4.06948231569077E-36));
#449=DIRECTION('',(-0.0232367589367448,-1.3363823550461E-51,-0.999729990064375));
#450=DIRECTION('',(-5.29023786409036E-14,1.,1.22961182707208E-15));
#451=DIRECTION('',(-0.0232367589367964,-1.97215226305253E-31,-0.999729990064374));
#452=DIRECTION('',(0.,-1.,0.));
#453=DIRECTION('',(0.,0.,-1.));
#454=DIRECTION('',(1.28197512425571E-16,-1.,0.));
#455=DIRECTION('',(1.,1.28197512425571E-16,0.));
#456=DIRECTION('',(1.01730104260688E-13,-1.,0.));
#457=DIRECTION('',(1.,1.01730104260688E-13,0.));
#458=DIRECTION('',(-8.27426604451945E-14,1.,0.));
#459=DIRECTION('',(-1.,-8.27426604451945E-14,0.));
#460=DIRECTION('',(0.,-1.,0.));
#461=DIRECTION('',(0.,0.,-1.));
#462=DIRECTION('',(0.,-1.,0.));
#463=DIRECTION('',(0.,0.,-1.));
#464=DIRECTION('',(1.74905722628433E-47,-1.,-7.53681856332853E-33));
#465=DIRECTION('',(0.,7.53681856332853E-33,-1.));
#466=DIRECTION('',(0.,-1.,0.));
#467=DIRECTION('',(0.,0.,-1.));
#468=DIRECTION('',(-9.93528066257909E-112,1.,7.53681856332853E-33));
#469=DIRECTION('',(1.,0.,1.31823269713837E-79));
#470=DIRECTION('',(-5.29023786409036E-14,1.,1.22961182707208E-15));
#471=DIRECTION('',(-0.0232367589367964,-1.97215226305253E-31,-0.999729990064374));
#472=DIRECTION('',(0.,1.,0.));
#473=DIRECTION('',(1.,0.,0.));
#474=DIRECTION('',(0.,1.,0.));
#475=DIRECTION('',(0.,0.,1.));
#476=DIRECTION('',(0.,-1.,0.));
#477=DIRECTION('',(0.,0.,-1.));
#478=DIRECTION('',(0.,-1.,0.));
#479=DIRECTION('',(0.194159510977359,0.,-0.980969971149491));
#480=DIRECTION('',(0.,-1.,0.));
#481=DIRECTION('',(0.194159510977389,0.,-0.980969971149485));
#482=DIRECTION('',(0.,-1.,0.));
#483=DIRECTION('',(0.194159510977388,0.,-0.980969971149485));
#484=DIRECTION('',(0.,1.,0.));
#485=DIRECTION('',(0.194159510977358,0.,-0.980969971149491));
#486=DIRECTION('',(0.,-1.,0.));
#487=DIRECTION('',(0.194159510977392,0.,-0.980969971149484));
#488=DIRECTION('',(0.,1.,0.));
#489=DIRECTION('',(0.194159510977359,0.,-0.980969971149491));
#490=DIRECTION('',(0.,-1.,0.));
#491=DIRECTION('',(0.194159510977388,0.,-0.980969971149485));
#492=DIRECTION('',(0.,1.,0.));
#493=DIRECTION('',(1.,0.,0.));
#494=DIRECTION('',(0.,-1.,0.));
#495=DIRECTION('',(0.,0.,-1.));
#496=DIRECTION('',(0.,-1.,0.));
#497=DIRECTION('',(0.194159510977392,0.,-0.980969971149484));
#498=DIRECTION('',(0.,1.,0.));
#499=DIRECTION('',(0.,0.,-1.));
#500=DIRECTION('',(0.,-1.,0.));
#501=DIRECTION('',(-1.,0.,0.));
#502=DIRECTION('',(0.,-1.,0.));
#503=DIRECTION('',(0.,0.,-1.));
#504=DIRECTION('',(-1.75310914309509E-47,1.,7.53681856332853E-33));
#505=DIRECTION('',(-0.0232367589367448,7.53478354743343E-33,-0.999729990064375));
#506=DIRECTION('',(0.,-1.,0.));
#507=DIRECTION('',(0.194159510977359,0.,-0.980969971149491));
#508=DIRECTION('',(0.,-1.,0.));
#509=DIRECTION('',(0.,0.,1.));
#510=DIRECTION('',(-1.01762630325862E-13,1.,0.));
#511=DIRECTION('',(-1.,-1.01762630325862E-13,0.));
#512=DIRECTION('',(-1.92296268638354E-16,1.,0.));
#513=DIRECTION('',(-1.,-1.92296268638354E-16,0.));
#514=DIRECTION('',(-6.24909254732455E-14,1.,0.));
#515=DIRECTION('',(-1.,-6.24909254732455E-14,0.));
#516=DIRECTION('',(0.,-1.,0.));
#517=DIRECTION('',(-1.,0.,0.));
#518=DIRECTION('',(0.,0.,1.));
#519=DIRECTION('',(1.,0.,0.));
#520=CARTESIAN_POINT('',(0.,0.,0.));
#521=CARTESIAN_POINT('',(0.,-0.0150636709622909,0.));
#522=CARTESIAN_POINT('',(0.,-0.00430000000000026,0.));
#523=CARTESIAN_POINT('',(0.,-0.00430000000000026,-0.007));
#524=CARTESIAN_POINT('',(0.,-0.0135000000000003,0.));
#525=CARTESIAN_POINT('',(0.,-0.0135000000000003,-0.007));
#526=CARTESIAN_POINT('',(0.,-0.0145,0.));
#527=CARTESIAN_POINT('',(0.,-0.0145000000000003,0.));
#528=CARTESIAN_POINT('',(0.,-0.0145000000000003,-0.006));
#529=CARTESIAN_POINT('',(0.,-0.0150636709622909,0.));
#530=CARTESIAN_POINT('',(0.,0.0142000000000003,0.));
#531=CARTESIAN_POINT('',(0.,0.0142000000000003,-0.007));
#532=CARTESIAN_POINT('',(0.,0.00430000000000026,0.));
#533=CARTESIAN_POINT('',(0.,0.00430000000000026,-0.007));
#534=CARTESIAN_POINT('',(0.,0.0033,0.));
#535=CARTESIAN_POINT('',(0.,0.00330000000000025,0.));
#536=CARTESIAN_POINT('',(0.,0.00330000000000025,-0.006));
#537=CARTESIAN_POINT('',(2.69897209718577E-18,-0.0169026203889642,1.46519645294217E-19));
#538=CARTESIAN_POINT('',(2.56698972097186E-16,-0.0172026203889644,2.54146519645294E-16));
#539=CARTESIAN_POINT('',(-0.00012664033620525,-0.0172026203889644,-0.00544852844585058));
#540=CARTESIAN_POINT('',(2.56698972097186E-16,-0.0169026203889644,2.54146519645294E-16));
#541=CARTESIAN_POINT('',(-0.000133611363886274,-0.0169026203889644,-0.0057484474428699));
#542=CARTESIAN_POINT('',(4.20128341838133E-19,0.0172526203889642,0.));
#543=CARTESIAN_POINT('',(2.54420128341838E-16,0.0165598000659369,0.));
#544=CARTESIAN_POINT('',(0.000791200007233188,0.0165598000659369,-0.00399745263243414));
#545=CARTESIAN_POINT('',(2.54420128341838E-16,0.0172526203889644,0.));
#546=CARTESIAN_POINT('',(0.000868863811624129,0.0172526203889644,-0.00438984062089393));
#547=CARTESIAN_POINT('',(2.69897209718577E-18,-0.00960262038896415,1.46519645294218E-19));
#548=CARTESIAN_POINT('',(2.56698972097186E-16,-0.0160026203889644,2.54146519645294E-16));
#549=CARTESIAN_POINT('',(-0.000133611363886274,-0.0160026203889644,-0.0057484474428699));
#550=CARTESIAN_POINT('',(2.69897209718577E-18,-0.0172026203889642,1.46519645294217E-19));
#551=CARTESIAN_POINT('',(2.56698972097186E-16,-0.0165531013361261,2.54146519645294E-16));
#552=CARTESIAN_POINT('',(-7.14530337304814E-5,-0.0165531013361261,-0.00307416971944769));
#553=CARTESIAN_POINT('',(2.56698972097186E-16,-0.0172026203889644,2.54146519645294E-16));
#554=CARTESIAN_POINT('',(-8.01668183317606E-5,-0.0172026203889644,-0.00344906846572183));
#555=CARTESIAN_POINT('',(2.69897209718577E-18,-0.00960262038896415,1.46519645294218E-19));
#556=CARTESIAN_POINT('',(2.56698972097186E-16,-0.0156026203889644,2.54146519645294E-16));
#557=CARTESIAN_POINT('',(-0.000111536442896366,-0.0156026203889644,-0.00479870395230874));
#558=CARTESIAN_POINT('',(2.56698972097186E-16,-0.0145000000000003,2.54146519645294E-16));
#559=CARTESIAN_POINT('',(2.56698972097186E-16,-0.0145000000000003,-0.00479999999999975));
#560=CARTESIAN_POINT('',(1.37419537971899E-16,-0.999424647922242,0.));
#561=CARTESIAN_POINT('',(2.55844253802242E-16,-0.000868023595216227,0.));
#562=CARTESIAN_POINT('',(0.00250000000000026,-0.000868023595215973,0.));
#563=CARTESIAN_POINT('',(2.55889326654717E-16,-0.00120000000000025,0.));
#564=CARTESIAN_POINT('',(-0.00307499999999974,-0.0012000000000005,0.));
#565=CARTESIAN_POINT('',(0.,-0.0043,0.));
#566=CARTESIAN_POINT('',(0.,-0.00330000000000025,0.));
#567=CARTESIAN_POINT('',(0.,-0.00330000000000025,-0.006));
#568=CARTESIAN_POINT('',(-0.00544852844585084,-0.0172026203889642,0.000126640336205259));
#569=CARTESIAN_POINT('',(0.006,-0.0145,0.));
#570=CARTESIAN_POINT('',(-0.004798703952309,-0.0160026203889642,0.000111536442896375));
#571=CARTESIAN_POINT('',(2.56698972097186E-16,-0.0160026203889644,2.54146519645294E-16));
#572=CARTESIAN_POINT('',(-0.000111536442896366,-0.0160026203889644,-0.00479870395230874));
#573=CARTESIAN_POINT('',(-2.4492935982947E-20,0.0145,0.));
#574=CARTESIAN_POINT('',(2.54420128341838E-16,0.0145000000000003,0.));
#575=CARTESIAN_POINT('',(2.54420128341838E-16,0.0145000000000003,0.00585));
#576=CARTESIAN_POINT('',(0.,0.0145000000000003,0.));
#577=CARTESIAN_POINT('',(0.,0.0145000000000003,-0.0067));
#578=CARTESIAN_POINT('',(4.20128341838133E-19,0.0169526203889642,0.));
#579=CARTESIAN_POINT('',(2.54420128341838E-16,0.0172526203889644,0.));
#580=CARTESIAN_POINT('',(0.00125232884580441,0.0172526203889644,-0.00632725631391418));
#581=CARTESIAN_POINT('',(2.54420128341838E-16,0.0169526203889644,0.));
#582=CARTESIAN_POINT('',(0.00131057669909762,0.0169526203889644,-0.00662154730525902));
#583=CARTESIAN_POINT('',(4.20128341838133E-19,0.00955262038896415,0.));
#584=CARTESIAN_POINT('',(2.54420128341838E-16,0.0156526203889644,0.));
#585=CARTESIAN_POINT('',(0.001135833139218,0.0156526203889644,-0.00573867433122448));
#586=CARTESIAN_POINT('',(4.20128341838133E-19,0.00955262038896415,0.));
#587=CARTESIAN_POINT('',(2.54420128341838E-16,0.0160526203889644,0.));
#588=CARTESIAN_POINT('',(0.00131057669909762,0.0160526203889644,-0.00662154730525902));
#589=CARTESIAN_POINT('',(0.00632725631391422,0.0172526203889642,0.00125232884580396));
#590=CARTESIAN_POINT('',(0.00573867433122452,0.0160526203889642,0.00113583313921755));
#591=CARTESIAN_POINT('',(2.54420128341838E-16,0.0160526203889644,0.));
#592=CARTESIAN_POINT('',(0.001135833139218,0.0160526203889644,-0.00573867433122448));
#593=CARTESIAN_POINT('',(0.,-0.0150636709622909,0.));
#594=CARTESIAN_POINT('',(0.,0.0127155131271909,0.));
#595=CARTESIAN_POINT('',(0.,0.0142,0.));
#596=CARTESIAN_POINT('',(2.69897209718577E-18,-0.0158026203889642,1.46519645294217E-19));
#597=CARTESIAN_POINT('',(4.20128341838133E-19,0.0158526203889642,0.));
#598=CARTESIAN_POINT('',(-7.87878858359934E-19,0.0048,0.));
#599=CARTESIAN_POINT('',(2.56365167468672E-16,9.06733260266102E-5,0.));
#600=CARTESIAN_POINT('',(-0.00249999999999974,9.06733260263558E-5,0.));
#601=CARTESIAN_POINT('',(-1.61539343611021E-16,0.998647297653052,0.));
#602=CARTESIAN_POINT('',(2.56215909289137E-16,0.00100000000000025,0.));
#603=CARTESIAN_POINT('',(-0.00407499999999974,0.000999999999999995,0.));
#604=CARTESIAN_POINT('',(0.,0.0145,0.));
#605=CARTESIAN_POINT('',(0.,0.,0.));
#606=MECHANICAL_DESIGN_GEOMETRIC_PRESENTATION_REPRESENTATION('',(#333),
#607);
#607=(
GEOMETRIC_REPRESENTATION_CONTEXT(3)
GLOBAL_UNCERTAINTY_ASSIGNED_CONTEXT((#609))
GLOBAL_UNIT_ASSIGNED_CONTEXT((#613,#612,#611))
REPRESENTATION_CONTEXT('X0164030','TOP_LEVEL_ASSEMBLY_PART')
);
#608=(
GEOMETRIC_REPRESENTATION_CONTEXT(3)
GLOBAL_UNCERTAINTY_ASSIGNED_CONTEXT((#610))
GLOBAL_UNIT_ASSIGNED_CONTEXT((#613,#612,#611))
REPRESENTATION_CONTEXT('X0164030_PART1','COMPONENT_PART')
);
#609=UNCERTAINTY_MEASURE_WITH_UNIT(LENGTH_MEASURE(5.E-6),#613,
'DISTANCE_ACCURACY_VALUE','Maximum Tolerance applied to model');
#610=UNCERTAINTY_MEASURE_WITH_UNIT(LENGTH_MEASURE(5.E-6),#613,
'DISTANCE_ACCURACY_VALUE','Maximum Tolerance applied to model');
#611=(
NAMED_UNIT(*)
SI_UNIT($,.STERADIAN.)
SOLID_ANGLE_UNIT()
);
#612=(
NAMED_UNIT(*)
PLANE_ANGLE_UNIT()
SI_UNIT($,.RADIAN.)
);
#613=(
LENGTH_UNIT()
NAMED_UNIT(*)
SI_UNIT($,.METRE.)
);
#614=PRODUCT_DEFINITION_SHAPE('','',#617);
#615=PRODUCT_DEFINITION_SHAPE('','',#618);
#616=PRODUCT_DEFINITION_SHAPE(' ','NAUO PRDDFN',#19);
#617=PRODUCT_DEFINITION('','',#621,#619);
#618=PRODUCT_DEFINITION('','',#622,#620);
#619=PRODUCT_DEFINITION_CONTEXT('',#632,'design');
#620=PRODUCT_DEFINITION_CONTEXT('',#632,'design');
#621=PRODUCT_DEFINITION_FORMATION_WITH_SPECIFIED_SOURCE('','',#625,
 .NOT_KNOWN.);
#622=PRODUCT_DEFINITION_FORMATION_WITH_SPECIFIED_SOURCE('','',#626,
 .NOT_KNOWN.);
#623=PRODUCT_RELATED_PRODUCT_CATEGORY('','',(#625));
#624=PRODUCT_RELATED_PRODUCT_CATEGORY('','',(#626));
#625=PRODUCT('X0164030','X0164030','X0164030',(#629));
#626=PRODUCT('X0164030_PART1','X0164030_PART1','X0164030_PART1',(#630));
#627=PRODUCT_CATEGORY('','');
#628=PRODUCT_CATEGORY('','');
#629=PRODUCT_CONTEXT('',#632,'mechanical');
#630=PRODUCT_CONTEXT('',#632,'mechanical');
#631=APPLICATION_PROTOCOL_DEFINITION('international standard',
'automotive_design',2010,#632);
#632=APPLICATION_CONTEXT(
'core data for automotive mechanical design processes');
ENDSEC;
END-ISO-10303-21;
