ISO-10303-21;
HEADER;
/* Generated by software containing ST-Developer
 * from STEP Tools, Inc. (www.steptools.com) 
 */

FILE_DESCRIPTION(
/* description */ (''),
/* implementation_level */ '2;1');

FILE_NAME(
/* name */ 'H:\\cad\\neutral\\3d\\70363\\iqsc_40_msv.stp',
/* time_stamp */ '2017-11-02T11:48:09+01:00',
/* author */ ('Hamoud'),
/* organization */ (''),
/* preprocessor_version */ 'ST-DEVELOPER v15.6',
/* originating_system */ 'Autodesk Inventor LT ',
/* authorisation */ '');

FILE_SCHEMA (('AUTOMOTIVE_DESIGN { 1 0 10303 214 3 1 1 }'));
ENDSEC;

DATA;
#10=MECHANICAL_DESIGN_GEOMETRIC_PRESENTATION_REPRESENTATION('',(#14,#13),
#572);
#11=SHAPE_REPRESENTATION_RELATIONSHIP('SRR','None',#581,#12);
#12=ADVANCED_BREP_SHAPE_REPRESENTATION($,(#15,#16),#571);
#13=STYLED_ITEM('',(#591),#15);
#14=STYLED_ITEM('',(#591),#16);
#15=MANIFOLD_SOLID_BREP('Solid',#316);
#16=MANIFOLD_SOLID_BREP('Solid_1',#317);
#17=TOROIDAL_SURFACE('',#338,4.,0.499999999999999);
#18=PLANE('',#328);
#19=PLANE('',#334);
#20=PLANE('',#342);
#21=PLANE('',#343);
#22=PLANE('',#352);
#23=PLANE('',#358);
#24=PLANE('',#367);
#25=PLANE('',#373);
#26=CONICAL_SURFACE('',#322,3.7,45.0000000000001);
#27=CONICAL_SURFACE('',#326,3.2,30.);
#28=CONICAL_SURFACE('',#332,2.55,45.0000000000002);
#29=CONICAL_SURFACE('',#336,4.08682408883347,79.9999999999999);
#30=CONICAL_SURFACE('',#346,4.5,45.0000000000002);
#31=CONICAL_SURFACE('',#350,4.5,44.9999999999996);
#32=CONICAL_SURFACE('',#356,3.5,45.0000000000001);
#33=CONICAL_SURFACE('',#359,3.97320508075688,30.0000000000001);
#34=CONICAL_SURFACE('',#363,3.8,29.999999999999);
#35=CONICAL_SURFACE('',#369,2.34999999999999,45.);
#36=FACE_BOUND('',#91,.T.);
#37=FACE_BOUND('',#93,.T.);
#38=FACE_BOUND('',#95,.T.);
#39=FACE_BOUND('',#97,.T.);
#40=FACE_BOUND('',#99,.T.);
#41=FACE_BOUND('',#101,.T.);
#42=FACE_BOUND('',#103,.T.);
#43=FACE_BOUND('',#105,.T.);
#44=FACE_BOUND('',#107,.T.);
#45=FACE_BOUND('',#109,.T.);
#46=FACE_BOUND('',#111,.T.);
#47=FACE_BOUND('',#113,.T.);
#48=FACE_BOUND('',#115,.T.);
#49=FACE_BOUND('',#117,.T.);
#50=FACE_BOUND('',#119,.T.);
#51=FACE_BOUND('',#121,.T.);
#52=FACE_BOUND('',#123,.T.);
#53=FACE_BOUND('',#125,.T.);
#54=FACE_BOUND('',#127,.T.);
#55=FACE_BOUND('',#130,.T.);
#56=FACE_BOUND('',#132,.T.);
#57=FACE_BOUND('',#134,.T.);
#58=FACE_BOUND('',#136,.T.);
#59=FACE_BOUND('',#138,.T.);
#60=FACE_BOUND('',#140,.T.);
#61=FACE_BOUND('',#142,.T.);
#62=FACE_OUTER_BOUND('',#90,.T.);
#63=FACE_OUTER_BOUND('',#92,.T.);
#64=FACE_OUTER_BOUND('',#94,.T.);
#65=FACE_OUTER_BOUND('',#96,.T.);
#66=FACE_OUTER_BOUND('',#98,.T.);
#67=FACE_OUTER_BOUND('',#100,.T.);
#68=FACE_OUTER_BOUND('',#102,.T.);
#69=FACE_OUTER_BOUND('',#104,.T.);
#70=FACE_OUTER_BOUND('',#106,.T.);
#71=FACE_OUTER_BOUND('',#108,.T.);
#72=FACE_OUTER_BOUND('',#110,.T.);
#73=FACE_OUTER_BOUND('',#112,.T.);
#74=FACE_OUTER_BOUND('',#114,.T.);
#75=FACE_OUTER_BOUND('',#116,.T.);
#76=FACE_OUTER_BOUND('',#118,.T.);
#77=FACE_OUTER_BOUND('',#120,.T.);
#78=FACE_OUTER_BOUND('',#122,.T.);
#79=FACE_OUTER_BOUND('',#124,.T.);
#80=FACE_OUTER_BOUND('',#126,.T.);
#81=FACE_OUTER_BOUND('',#128,.T.);
#82=FACE_OUTER_BOUND('',#129,.T.);
#83=FACE_OUTER_BOUND('',#131,.T.);
#84=FACE_OUTER_BOUND('',#133,.T.);
#85=FACE_OUTER_BOUND('',#135,.T.);
#86=FACE_OUTER_BOUND('',#137,.T.);
#87=FACE_OUTER_BOUND('',#139,.T.);
#88=FACE_OUTER_BOUND('',#141,.T.);
#89=FACE_OUTER_BOUND('',#143,.T.);
#90=EDGE_LOOP('',(#225));
#91=EDGE_LOOP('',(#226));
#92=EDGE_LOOP('',(#227));
#93=EDGE_LOOP('',(#228));
#94=EDGE_LOOP('',(#229));
#95=EDGE_LOOP('',(#230));
#96=EDGE_LOOP('',(#231));
#97=EDGE_LOOP('',(#232));
#98=EDGE_LOOP('',(#233));
#99=EDGE_LOOP('',(#234));
#100=EDGE_LOOP('',(#235));
#101=EDGE_LOOP('',(#236));
#102=EDGE_LOOP('',(#237));
#103=EDGE_LOOP('',(#238));
#104=EDGE_LOOP('',(#239));
#105=EDGE_LOOP('',(#240));
#106=EDGE_LOOP('',(#241));
#107=EDGE_LOOP('',(#242));
#108=EDGE_LOOP('',(#243));
#109=EDGE_LOOP('',(#244));
#110=EDGE_LOOP('',(#245));
#111=EDGE_LOOP('',(#246));
#112=EDGE_LOOP('',(#247));
#113=EDGE_LOOP('',(#248));
#114=EDGE_LOOP('',(#249));
#115=EDGE_LOOP('',(#250));
#116=EDGE_LOOP('',(#251));
#117=EDGE_LOOP('',(#252));
#118=EDGE_LOOP('',(#253));
#119=EDGE_LOOP('',(#254));
#120=EDGE_LOOP('',(#255));
#121=EDGE_LOOP('',(#256));
#122=EDGE_LOOP('',(#257));
#123=EDGE_LOOP('',(#258));
#124=EDGE_LOOP('',(#259));
#125=EDGE_LOOP('',(#260));
#126=EDGE_LOOP('',(#261));
#127=EDGE_LOOP('',(#262));
#128=EDGE_LOOP('',(#263));
#129=EDGE_LOOP('',(#264));
#130=EDGE_LOOP('',(#265));
#131=EDGE_LOOP('',(#266));
#132=EDGE_LOOP('',(#267));
#133=EDGE_LOOP('',(#268));
#134=EDGE_LOOP('',(#269));
#135=EDGE_LOOP('',(#270));
#136=EDGE_LOOP('',(#271));
#137=EDGE_LOOP('',(#272));
#138=EDGE_LOOP('',(#273));
#139=EDGE_LOOP('',(#274));
#140=EDGE_LOOP('',(#275));
#141=EDGE_LOOP('',(#276));
#142=EDGE_LOOP('',(#277));
#143=EDGE_LOOP('',(#278));
#144=CIRCLE('',#320,3.7);
#145=CIRCLE('',#321,3.7);
#146=CIRCLE('',#323,3.2);
#147=CIRCLE('',#325,3.2);
#148=CIRCLE('',#327,2.15000000000001);
#149=CIRCLE('',#329,2.05);
#150=CIRCLE('',#331,2.05);
#151=CIRCLE('',#333,2.55);
#152=CIRCLE('',#335,3.25);
#153=CIRCLE('',#337,4.08682408883347);
#154=CIRCLE('',#339,4.5);
#155=CIRCLE('',#341,4.5);
#156=CIRCLE('',#344,4.3);
#157=CIRCLE('',#345,3.97320508075688);
#158=CIRCLE('',#347,4.5);
#159=CIRCLE('',#349,4.5);
#160=CIRCLE('',#351,4.3);
#161=CIRCLE('',#353,3.5);
#162=CIRCLE('',#355,3.5);
#163=CIRCLE('',#357,3.3);
#164=CIRCLE('',#360,3.8);
#165=CIRCLE('',#362,3.8);
#166=CIRCLE('',#364,3.65000000000001);
#167=CIRCLE('',#366,3.65000000000001);
#168=CIRCLE('',#368,2.34999999999999);
#169=CIRCLE('',#370,2.05);
#170=CIRCLE('',#372,2.05);
#171=VERTEX_POINT('',#488);
#172=VERTEX_POINT('',#490);
#173=VERTEX_POINT('',#493);
#174=VERTEX_POINT('',#496);
#175=VERTEX_POINT('',#499);
#176=VERTEX_POINT('',#502);
#177=VERTEX_POINT('',#505);
#178=VERTEX_POINT('',#508);
#179=VERTEX_POINT('',#511);
#180=VERTEX_POINT('',#514);
#181=VERTEX_POINT('',#517);
#182=VERTEX_POINT('',#520);
#183=VERTEX_POINT('',#524);
#184=VERTEX_POINT('',#526);
#185=VERTEX_POINT('',#529);
#186=VERTEX_POINT('',#532);
#187=VERTEX_POINT('',#535);
#188=VERTEX_POINT('',#538);
#189=VERTEX_POINT('',#541);
#190=VERTEX_POINT('',#544);
#191=VERTEX_POINT('',#548);
#192=VERTEX_POINT('',#551);
#193=VERTEX_POINT('',#554);
#194=VERTEX_POINT('',#557);
#195=VERTEX_POINT('',#560);
#196=VERTEX_POINT('',#563);
#197=VERTEX_POINT('',#566);
#198=EDGE_CURVE('',#171,#171,#144,.T.);
#199=EDGE_CURVE('',#172,#172,#145,.T.);
#200=EDGE_CURVE('',#173,#173,#146,.T.);
#201=EDGE_CURVE('',#174,#174,#147,.T.);
#202=EDGE_CURVE('',#175,#175,#148,.T.);
#203=EDGE_CURVE('',#176,#176,#149,.T.);
#204=EDGE_CURVE('',#177,#177,#150,.T.);
#205=EDGE_CURVE('',#178,#178,#151,.T.);
#206=EDGE_CURVE('',#179,#179,#152,.T.);
#207=EDGE_CURVE('',#180,#180,#153,.T.);
#208=EDGE_CURVE('',#181,#181,#154,.T.);
#209=EDGE_CURVE('',#182,#182,#155,.T.);
#210=EDGE_CURVE('',#183,#183,#156,.T.);
#211=EDGE_CURVE('',#184,#184,#157,.T.);
#212=EDGE_CURVE('',#185,#185,#158,.T.);
#213=EDGE_CURVE('',#186,#186,#159,.T.);
#214=EDGE_CURVE('',#187,#187,#160,.T.);
#215=EDGE_CURVE('',#188,#188,#161,.T.);
#216=EDGE_CURVE('',#189,#189,#162,.T.);
#217=EDGE_CURVE('',#190,#190,#163,.T.);
#218=EDGE_CURVE('',#191,#191,#164,.T.);
#219=EDGE_CURVE('',#192,#192,#165,.T.);
#220=EDGE_CURVE('',#193,#193,#166,.T.);
#221=EDGE_CURVE('',#194,#194,#167,.T.);
#222=EDGE_CURVE('',#195,#195,#168,.T.);
#223=EDGE_CURVE('',#196,#196,#169,.T.);
#224=EDGE_CURVE('',#197,#197,#170,.T.);
#225=ORIENTED_EDGE('',*,*,#198,.T.);
#226=ORIENTED_EDGE('',*,*,#199,.F.);
#227=ORIENTED_EDGE('',*,*,#200,.T.);
#228=ORIENTED_EDGE('',*,*,#198,.F.);
#229=ORIENTED_EDGE('',*,*,#201,.T.);
#230=ORIENTED_EDGE('',*,*,#200,.F.);
#231=ORIENTED_EDGE('',*,*,#202,.T.);
#232=ORIENTED_EDGE('',*,*,#201,.F.);
#233=ORIENTED_EDGE('',*,*,#202,.F.);
#234=ORIENTED_EDGE('',*,*,#203,.T.);
#235=ORIENTED_EDGE('',*,*,#204,.T.);
#236=ORIENTED_EDGE('',*,*,#203,.F.);
#237=ORIENTED_EDGE('',*,*,#205,.T.);
#238=ORIENTED_EDGE('',*,*,#204,.F.);
#239=ORIENTED_EDGE('',*,*,#206,.T.);
#240=ORIENTED_EDGE('',*,*,#205,.F.);
#241=ORIENTED_EDGE('',*,*,#207,.T.);
#242=ORIENTED_EDGE('',*,*,#206,.F.);
#243=ORIENTED_EDGE('',*,*,#208,.T.);
#244=ORIENTED_EDGE('',*,*,#207,.F.);
#245=ORIENTED_EDGE('',*,*,#209,.T.);
#246=ORIENTED_EDGE('',*,*,#208,.F.);
#247=ORIENTED_EDGE('',*,*,#209,.F.);
#248=ORIENTED_EDGE('',*,*,#199,.T.);
#249=ORIENTED_EDGE('',*,*,#210,.T.);
#250=ORIENTED_EDGE('',*,*,#211,.F.);
#251=ORIENTED_EDGE('',*,*,#212,.T.);
#252=ORIENTED_EDGE('',*,*,#210,.F.);
#253=ORIENTED_EDGE('',*,*,#213,.T.);
#254=ORIENTED_EDGE('',*,*,#212,.F.);
#255=ORIENTED_EDGE('',*,*,#214,.T.);
#256=ORIENTED_EDGE('',*,*,#213,.F.);
#257=ORIENTED_EDGE('',*,*,#214,.F.);
#258=ORIENTED_EDGE('',*,*,#215,.T.);
#259=ORIENTED_EDGE('',*,*,#216,.T.);
#260=ORIENTED_EDGE('',*,*,#215,.F.);
#261=ORIENTED_EDGE('',*,*,#217,.T.);
#262=ORIENTED_EDGE('',*,*,#216,.F.);
#263=ORIENTED_EDGE('',*,*,#217,.F.);
#264=ORIENTED_EDGE('',*,*,#211,.T.);
#265=ORIENTED_EDGE('',*,*,#218,.F.);
#266=ORIENTED_EDGE('',*,*,#219,.F.);
#267=ORIENTED_EDGE('',*,*,#218,.T.);
#268=ORIENTED_EDGE('',*,*,#220,.F.);
#269=ORIENTED_EDGE('',*,*,#219,.T.);
#270=ORIENTED_EDGE('',*,*,#221,.F.);
#271=ORIENTED_EDGE('',*,*,#220,.T.);
#272=ORIENTED_EDGE('',*,*,#221,.T.);
#273=ORIENTED_EDGE('',*,*,#222,.F.);
#274=ORIENTED_EDGE('',*,*,#223,.F.);
#275=ORIENTED_EDGE('',*,*,#222,.T.);
#276=ORIENTED_EDGE('',*,*,#224,.F.);
#277=ORIENTED_EDGE('',*,*,#223,.T.);
#278=ORIENTED_EDGE('',*,*,#224,.T.);
#279=CYLINDRICAL_SURFACE('',#319,3.7);
#280=CYLINDRICAL_SURFACE('',#324,3.2);
#281=CYLINDRICAL_SURFACE('',#330,2.05);
#282=CYLINDRICAL_SURFACE('',#340,4.5);
#283=CYLINDRICAL_SURFACE('',#348,4.5);
#284=CYLINDRICAL_SURFACE('',#354,3.5);
#285=CYLINDRICAL_SURFACE('',#361,3.8);
#286=CYLINDRICAL_SURFACE('',#365,3.65000000000001);
#287=CYLINDRICAL_SURFACE('',#371,2.05);
#288=ADVANCED_FACE('',(#62,#36),#279,.T.);
#289=ADVANCED_FACE('',(#63,#37),#26,.T.);
#290=ADVANCED_FACE('',(#64,#38),#280,.T.);
#291=ADVANCED_FACE('',(#65,#39),#27,.T.);
#292=ADVANCED_FACE('',(#66,#40),#18,.T.);
#293=ADVANCED_FACE('',(#67,#41),#281,.F.);
#294=ADVANCED_FACE('',(#68,#42),#28,.F.);
#295=ADVANCED_FACE('',(#69,#43),#19,.T.);
#296=ADVANCED_FACE('',(#70,#44),#29,.T.);
#297=ADVANCED_FACE('',(#71,#45),#17,.T.);
#298=ADVANCED_FACE('',(#72,#46),#282,.T.);
#299=ADVANCED_FACE('',(#73,#47),#20,.T.);
#300=ADVANCED_FACE('',(#74,#48),#21,.T.);
#301=ADVANCED_FACE('',(#75,#49),#30,.T.);
#302=ADVANCED_FACE('',(#76,#50),#283,.T.);
#303=ADVANCED_FACE('',(#77,#51),#31,.T.);
#304=ADVANCED_FACE('',(#78,#52),#22,.T.);
#305=ADVANCED_FACE('',(#79,#53),#284,.T.);
#306=ADVANCED_FACE('',(#80,#54),#32,.T.);
#307=ADVANCED_FACE('',(#81),#23,.T.);
#308=ADVANCED_FACE('',(#82,#55),#33,.F.);
#309=ADVANCED_FACE('',(#83,#56),#285,.F.);
#310=ADVANCED_FACE('',(#84,#57),#34,.F.);
#311=ADVANCED_FACE('',(#85,#58),#286,.F.);
#312=ADVANCED_FACE('',(#86,#59),#24,.T.);
#313=ADVANCED_FACE('',(#87,#60),#35,.F.);
#314=ADVANCED_FACE('',(#88,#61),#287,.F.);
#315=ADVANCED_FACE('',(#89),#25,.T.);
#316=CLOSED_SHELL('',(#288,#289,#290,#291,#292,#293,#294,#295,#296,#297,
#298,#299));
#317=CLOSED_SHELL('',(#300,#301,#302,#303,#304,#305,#306,#307,#308,#309,
#310,#311,#312,#313,#314,#315));
#318=AXIS2_PLACEMENT_3D('placement',#486,#374,#375);
#319=AXIS2_PLACEMENT_3D('',#487,#376,#377);
#320=AXIS2_PLACEMENT_3D('',#489,#378,#379);
#321=AXIS2_PLACEMENT_3D('',#491,#380,#381);
#322=AXIS2_PLACEMENT_3D('',#492,#382,#383);
#323=AXIS2_PLACEMENT_3D('',#494,#384,#385);
#324=AXIS2_PLACEMENT_3D('',#495,#386,#387);
#325=AXIS2_PLACEMENT_3D('',#497,#388,#389);
#326=AXIS2_PLACEMENT_3D('',#498,#390,#391);
#327=AXIS2_PLACEMENT_3D('',#500,#392,#393);
#328=AXIS2_PLACEMENT_3D('',#501,#394,#395);
#329=AXIS2_PLACEMENT_3D('',#503,#396,#397);
#330=AXIS2_PLACEMENT_3D('',#504,#398,#399);
#331=AXIS2_PLACEMENT_3D('',#506,#400,#401);
#332=AXIS2_PLACEMENT_3D('',#507,#402,#403);
#333=AXIS2_PLACEMENT_3D('',#509,#404,#405);
#334=AXIS2_PLACEMENT_3D('',#510,#406,#407);
#335=AXIS2_PLACEMENT_3D('',#512,#408,#409);
#336=AXIS2_PLACEMENT_3D('',#513,#410,#411);
#337=AXIS2_PLACEMENT_3D('',#515,#412,#413);
#338=AXIS2_PLACEMENT_3D('',#516,#414,#415);
#339=AXIS2_PLACEMENT_3D('',#518,#416,#417);
#340=AXIS2_PLACEMENT_3D('',#519,#418,#419);
#341=AXIS2_PLACEMENT_3D('',#521,#420,#421);
#342=AXIS2_PLACEMENT_3D('',#522,#422,#423);
#343=AXIS2_PLACEMENT_3D('',#523,#424,#425);
#344=AXIS2_PLACEMENT_3D('',#525,#426,#427);
#345=AXIS2_PLACEMENT_3D('',#527,#428,#429);
#346=AXIS2_PLACEMENT_3D('',#528,#430,#431);
#347=AXIS2_PLACEMENT_3D('',#530,#432,#433);
#348=AXIS2_PLACEMENT_3D('',#531,#434,#435);
#349=AXIS2_PLACEMENT_3D('',#533,#436,#437);
#350=AXIS2_PLACEMENT_3D('',#534,#438,#439);
#351=AXIS2_PLACEMENT_3D('',#536,#440,#441);
#352=AXIS2_PLACEMENT_3D('',#537,#442,#443);
#353=AXIS2_PLACEMENT_3D('',#539,#444,#445);
#354=AXIS2_PLACEMENT_3D('',#540,#446,#447);
#355=AXIS2_PLACEMENT_3D('',#542,#448,#449);
#356=AXIS2_PLACEMENT_3D('',#543,#450,#451);
#357=AXIS2_PLACEMENT_3D('',#545,#452,#453);
#358=AXIS2_PLACEMENT_3D('',#546,#454,#455);
#359=AXIS2_PLACEMENT_3D('',#547,#456,#457);
#360=AXIS2_PLACEMENT_3D('',#549,#458,#459);
#361=AXIS2_PLACEMENT_3D('',#550,#460,#461);
#362=AXIS2_PLACEMENT_3D('',#552,#462,#463);
#363=AXIS2_PLACEMENT_3D('',#553,#464,#465);
#364=AXIS2_PLACEMENT_3D('',#555,#466,#467);
#365=AXIS2_PLACEMENT_3D('',#556,#468,#469);
#366=AXIS2_PLACEMENT_3D('',#558,#470,#471);
#367=AXIS2_PLACEMENT_3D('',#559,#472,#473);
#368=AXIS2_PLACEMENT_3D('',#561,#474,#475);
#369=AXIS2_PLACEMENT_3D('',#562,#476,#477);
#370=AXIS2_PLACEMENT_3D('',#564,#478,#479);
#371=AXIS2_PLACEMENT_3D('',#565,#480,#481);
#372=AXIS2_PLACEMENT_3D('',#567,#482,#483);
#373=AXIS2_PLACEMENT_3D('',#568,#484,#485);
#374=DIRECTION('axis',(0.,0.,1.));
#375=DIRECTION('refdir',(1.,0.,0.));
#376=DIRECTION('center_axis',(0.,0.,1.));
#377=DIRECTION('ref_axis',(1.,0.,0.));
#378=DIRECTION('center_axis',(0.,0.,1.));
#379=DIRECTION('ref_axis',(1.,0.,0.));
#380=DIRECTION('center_axis',(0.,0.,1.));
#381=DIRECTION('ref_axis',(1.,0.,0.));
#382=DIRECTION('center_axis',(0.,0.,1.));
#383=DIRECTION('ref_axis',(1.,0.,0.));
#384=DIRECTION('center_axis',(0.,0.,1.));
#385=DIRECTION('ref_axis',(1.,0.,0.));
#386=DIRECTION('center_axis',(0.,0.,1.));
#387=DIRECTION('ref_axis',(1.,0.,0.));
#388=DIRECTION('center_axis',(0.,0.,1.));
#389=DIRECTION('ref_axis',(1.,0.,0.));
#390=DIRECTION('center_axis',(0.,0.,1.));
#391=DIRECTION('ref_axis',(1.,0.,0.));
#392=DIRECTION('center_axis',(0.,0.,1.));
#393=DIRECTION('ref_axis',(1.,0.,0.));
#394=DIRECTION('center_axis',(0.,0.,-1.));
#395=DIRECTION('ref_axis',(-1.,0.,0.));
#396=DIRECTION('center_axis',(0.,0.,1.));
#397=DIRECTION('ref_axis',(1.,0.,0.));
#398=DIRECTION('center_axis',(0.,0.,-1.));
#399=DIRECTION('ref_axis',(1.,0.,0.));
#400=DIRECTION('center_axis',(0.,0.,1.));
#401=DIRECTION('ref_axis',(1.,0.,0.));
#402=DIRECTION('center_axis',(0.,0.,1.));
#403=DIRECTION('ref_axis',(1.,0.,0.));
#404=DIRECTION('center_axis',(0.,0.,1.));
#405=DIRECTION('ref_axis',(1.,0.,0.));
#406=DIRECTION('center_axis',(0.,0.,1.));
#407=DIRECTION('ref_axis',(1.,0.,0.));
#408=DIRECTION('center_axis',(0.,0.,1.));
#409=DIRECTION('ref_axis',(1.,0.,0.));
#410=DIRECTION('center_axis',(0.,0.,-1.));
#411=DIRECTION('ref_axis',(1.,0.,0.));
#412=DIRECTION('center_axis',(0.,0.,1.));
#413=DIRECTION('ref_axis',(1.,0.,0.));
#414=DIRECTION('center_axis',(0.,0.,1.));
#415=DIRECTION('ref_axis',(1.,0.,0.));
#416=DIRECTION('center_axis',(0.,0.,1.));
#417=DIRECTION('ref_axis',(1.,0.,0.));
#418=DIRECTION('center_axis',(0.,0.,1.));
#419=DIRECTION('ref_axis',(1.,0.,0.));
#420=DIRECTION('center_axis',(0.,0.,1.));
#421=DIRECTION('ref_axis',(1.,0.,0.));
#422=DIRECTION('center_axis',(0.,0.,-1.));
#423=DIRECTION('ref_axis',(-1.,0.,0.));
#424=DIRECTION('center_axis',(0.,0.,1.));
#425=DIRECTION('ref_axis',(1.,0.,0.));
#426=DIRECTION('center_axis',(0.,0.,1.));
#427=DIRECTION('ref_axis',(1.,0.,0.));
#428=DIRECTION('center_axis',(0.,0.,1.));
#429=DIRECTION('ref_axis',(0.,1.,0.));
#430=DIRECTION('center_axis',(0.,0.,-1.));
#431=DIRECTION('ref_axis',(1.,0.,0.));
#432=DIRECTION('center_axis',(0.,0.,1.));
#433=DIRECTION('ref_axis',(1.,0.,0.));
#434=DIRECTION('center_axis',(0.,0.,1.));
#435=DIRECTION('ref_axis',(1.,0.,0.));
#436=DIRECTION('center_axis',(0.,0.,1.));
#437=DIRECTION('ref_axis',(1.,0.,0.));
#438=DIRECTION('center_axis',(0.,0.,1.));
#439=DIRECTION('ref_axis',(1.,0.,0.));
#440=DIRECTION('center_axis',(0.,0.,1.));
#441=DIRECTION('ref_axis',(1.,0.,0.));
#442=DIRECTION('center_axis',(0.,0.,-1.));
#443=DIRECTION('ref_axis',(-1.,0.,0.));
#444=DIRECTION('center_axis',(0.,0.,1.));
#445=DIRECTION('ref_axis',(1.,0.,0.));
#446=DIRECTION('center_axis',(0.,0.,1.));
#447=DIRECTION('ref_axis',(1.,0.,0.));
#448=DIRECTION('center_axis',(0.,0.,1.));
#449=DIRECTION('ref_axis',(1.,0.,0.));
#450=DIRECTION('center_axis',(0.,0.,1.));
#451=DIRECTION('ref_axis',(1.,0.,0.));
#452=DIRECTION('center_axis',(0.,0.,1.));
#453=DIRECTION('ref_axis',(1.,0.,0.));
#454=DIRECTION('center_axis',(0.,0.,-1.));
#455=DIRECTION('ref_axis',(-1.,0.,0.));
#456=DIRECTION('center_axis',(0.,0.,1.));
#457=DIRECTION('ref_axis',(0.,1.,0.));
#458=DIRECTION('center_axis',(0.,0.,1.));
#459=DIRECTION('ref_axis',(0.,1.,0.));
#460=DIRECTION('center_axis',(0.,0.,1.));
#461=DIRECTION('ref_axis',(0.,1.,0.));
#462=DIRECTION('center_axis',(0.,0.,1.));
#463=DIRECTION('ref_axis',(0.,1.,0.));
#464=DIRECTION('center_axis',(0.,0.,1.));
#465=DIRECTION('ref_axis',(0.,1.,0.));
#466=DIRECTION('center_axis',(0.,0.,1.));
#467=DIRECTION('ref_axis',(0.,1.,0.));
#468=DIRECTION('center_axis',(0.,0.,1.));
#469=DIRECTION('ref_axis',(0.,1.,0.));
#470=DIRECTION('center_axis',(0.,0.,1.));
#471=DIRECTION('ref_axis',(0.,1.,0.));
#472=DIRECTION('center_axis',(0.,0.,1.));
#473=DIRECTION('ref_axis',(1.,0.,0.));
#474=DIRECTION('center_axis',(0.,0.,1.));
#475=DIRECTION('ref_axis',(0.,1.,0.));
#476=DIRECTION('center_axis',(0.,0.,1.));
#477=DIRECTION('ref_axis',(0.,1.,0.));
#478=DIRECTION('center_axis',(0.,0.,1.));
#479=DIRECTION('ref_axis',(0.,1.,0.));
#480=DIRECTION('center_axis',(0.,0.,1.));
#481=DIRECTION('ref_axis',(0.,1.,0.));
#482=DIRECTION('center_axis',(0.,0.,1.));
#483=DIRECTION('ref_axis',(0.,1.,0.));
#484=DIRECTION('center_axis',(0.,0.,1.));
#485=DIRECTION('ref_axis',(1.,0.,0.));
#486=CARTESIAN_POINT('',(0.,0.,0.));
#487=CARTESIAN_POINT('Origin',(8.8966268766049,-3.50593540099153,15.7995990778094));
#488=CARTESIAN_POINT('',(12.5966268766049,-3.50593540099153,15.7995990778094));
#489=CARTESIAN_POINT('Origin',(8.8966268766049,-3.50593540099153,15.7995990778094));
#490=CARTESIAN_POINT('',(12.5966268766049,-3.50593540099153,18.6495990778094));
#491=CARTESIAN_POINT('Origin',(8.8966268766049,-3.50593540099153,18.6495990778094));
#492=CARTESIAN_POINT('Origin',(8.8966268766049,-3.50593540099153,15.7995990778094));
#493=CARTESIAN_POINT('',(12.0966268766049,-3.50593540099153,15.2995990778094));
#494=CARTESIAN_POINT('Origin',(8.8966268766049,-3.50593540099153,15.2995990778094));
#495=CARTESIAN_POINT('Origin',(8.8966268766049,-3.50593540099153,13.1682524257567));
#496=CARTESIAN_POINT('',(12.0966268766049,-3.50593540099153,13.1682524257567));
#497=CARTESIAN_POINT('Origin',(8.8966268766049,-3.50593540099153,13.1682524257567));
#498=CARTESIAN_POINT('Origin',(8.8966268766049,-3.50593540099153,13.1682524257567));
#499=CARTESIAN_POINT('',(11.0466268766049,-3.50593540099153,11.3495990778094));
#500=CARTESIAN_POINT('Origin',(8.8966268766049,-3.50593540099153,11.3495990778094));
#501=CARTESIAN_POINT('Origin',(10.9466268766049,-3.50593540099153,11.3495990778094));
#502=CARTESIAN_POINT('',(10.9466268766049,-3.50593540099153,11.3495990778094));
#503=CARTESIAN_POINT('Origin',(8.8966268766049,-3.50593540099153,11.3495990778094));
#504=CARTESIAN_POINT('Origin',(8.8966268766049,-3.50593540099153,19.6495990778094));
#505=CARTESIAN_POINT('',(10.9466268766049,-3.50593540099153,19.6495990778094));
#506=CARTESIAN_POINT('Origin',(8.8966268766049,-3.50593540099153,19.6495990778094));
#507=CARTESIAN_POINT('Origin',(8.8966268766049,-3.50593540099153,20.1495990778094));
#508=CARTESIAN_POINT('',(11.4466268766049,-3.50593540099153,20.1495990778094));
#509=CARTESIAN_POINT('Origin',(8.8966268766049,-3.50593540099153,20.1495990778094));
#510=CARTESIAN_POINT('Origin',(12.1466268766049,-3.50593540099153,20.1495990778094));
#511=CARTESIAN_POINT('',(12.1466268766049,-3.50593540099153,20.1495990778094));
#512=CARTESIAN_POINT('Origin',(8.8966268766049,-3.50593540099153,20.1495990778094));
#513=CARTESIAN_POINT('Origin',(8.8966268766049,-3.50593540099153,20.0020444128413));
#514=CARTESIAN_POINT('',(12.9834509654384,-3.50593540099153,20.0020444128413));
#515=CARTESIAN_POINT('Origin',(8.8966268766049,-3.50593540099153,20.0020444128413));
#516=CARTESIAN_POINT('Origin',(8.8966268766049,-3.50593540099153,19.5096405363352));
#517=CARTESIAN_POINT('',(13.3966268766049,-3.50593540099153,19.5096405363352));
#518=CARTESIAN_POINT('Origin',(8.8966268766049,-3.50593540099153,19.5096405363352));
#519=CARTESIAN_POINT('Origin',(8.8966268766049,-3.50593540099153,18.6495990778094));
#520=CARTESIAN_POINT('',(13.3966268766049,-3.50593540099153,18.6495990778094));
#521=CARTESIAN_POINT('Origin',(8.8966268766049,-3.50593540099153,18.6495990778094));
#522=CARTESIAN_POINT('Origin',(12.5966268766049,-3.50593540099153,18.6495990778094));
#523=CARTESIAN_POINT('Origin',(13.1966268766049,-3.50593540099153,17.6495990778094));
#524=CARTESIAN_POINT('',(13.1966268766049,-3.50593540099153,17.6495990778094));
#525=CARTESIAN_POINT('Origin',(8.89662687660486,-3.50593540099153,17.6495990778094));
#526=CARTESIAN_POINT('',(8.89662687660486,0.46726967976535,17.6495990778094));
#527=CARTESIAN_POINT('Origin',(8.89662687660486,-3.50593540099153,17.6495990778094));
#528=CARTESIAN_POINT('Origin',(8.89662687660486,-3.50593540099153,17.4495990778094));
#529=CARTESIAN_POINT('',(13.3966268766049,-3.50593540099153,17.4495990778094));
#530=CARTESIAN_POINT('Origin',(8.89662687660486,-3.50593540099153,17.4495990778094));
#531=CARTESIAN_POINT('Origin',(8.89662687660486,-3.50593540099153,6.34959907780938));
#532=CARTESIAN_POINT('',(13.3966268766049,-3.50593540099153,6.34959907780938));
#533=CARTESIAN_POINT('Origin',(8.89662687660486,-3.50593540099153,6.34959907780938));
#534=CARTESIAN_POINT('Origin',(8.89662687660486,-3.50593540099153,6.34959907780938));
#535=CARTESIAN_POINT('',(13.1966268766049,-3.50593540099153,6.14959907780938));
#536=CARTESIAN_POINT('Origin',(8.89662687660486,-3.50593540099153,6.14959907780938));
#537=CARTESIAN_POINT('Origin',(12.3966268766049,-3.50593540099153,6.14959907780938));
#538=CARTESIAN_POINT('',(12.3966268766049,-3.50593540099153,6.14959907780938));
#539=CARTESIAN_POINT('Origin',(8.89662687660486,-3.50593540099153,6.14959907780938));
#540=CARTESIAN_POINT('Origin',(8.89662687660486,-3.50593540099153,4.34959907780938));
#541=CARTESIAN_POINT('',(12.3966268766049,-3.50593540099153,4.34959907780938));
#542=CARTESIAN_POINT('Origin',(8.89662687660486,-3.50593540099153,4.34959907780938));
#543=CARTESIAN_POINT('Origin',(8.89662687660486,-3.50593540099153,4.34959907780938));
#544=CARTESIAN_POINT('',(12.1966268766049,-3.50593540099153,4.14959907780938));
#545=CARTESIAN_POINT('Origin',(8.89662687660486,-3.50593540099153,4.14959907780938));
#546=CARTESIAN_POINT('Origin',(8.89662687660486,-3.50593540099153,4.14959907780938));
#547=CARTESIAN_POINT('Origin',(8.89662687660486,-3.50593540099153,17.6495990778094));
#548=CARTESIAN_POINT('',(8.89662687660486,0.29406459900847,17.3495990778094));
#549=CARTESIAN_POINT('Origin',(8.89662687660486,-3.50593540099153,17.3495990778094));
#550=CARTESIAN_POINT('Origin',(8.89662687660486,-3.50593540099153,14.7897914566741));
#551=CARTESIAN_POINT('',(8.89662687660486,0.29406459900847,14.7897914566741));
#552=CARTESIAN_POINT('Origin',(8.89662687660486,-3.50593540099153,14.7897914566741));
#553=CARTESIAN_POINT('Origin',(8.89662687660486,-3.50593540099153,14.7897914566741));
#554=CARTESIAN_POINT('',(8.89662687660486,0.14406459900848,14.5299838355387));
#555=CARTESIAN_POINT('Origin',(8.89662687660486,-3.50593540099153,14.5299838355387));
#556=CARTESIAN_POINT('Origin',(8.89662687660486,-3.50593540099153,8.64959907780938));
#557=CARTESIAN_POINT('',(8.89662687660486,0.14406459900848,8.64959907780938));
#558=CARTESIAN_POINT('Origin',(8.89662687660486,-3.50593540099153,8.64959907780938));
#559=CARTESIAN_POINT('Origin',(8.89662687660486,-1.15593540099154,8.64959907780938));
#560=CARTESIAN_POINT('',(8.89662687660486,-1.15593540099154,8.64959907780938));
#561=CARTESIAN_POINT('Origin',(8.89662687660486,-3.50593540099153,8.64959907780938));
#562=CARTESIAN_POINT('Origin',(8.89662687660486,-3.50593540099153,8.64959907780938));
#563=CARTESIAN_POINT('',(8.89662687660486,-1.45593540099153,8.34959907780938));
#564=CARTESIAN_POINT('Origin',(8.89662687660486,-3.50593540099153,8.34959907780938));
#565=CARTESIAN_POINT('Origin',(8.89662687660486,-3.50593540099153,5.14959907780938));
#566=CARTESIAN_POINT('',(8.89662687660486,-1.45593540099153,5.14959907780938));
#567=CARTESIAN_POINT('Origin',(8.89662687660486,-3.50593540099153,5.14959907780938));
#568=CARTESIAN_POINT('Origin',(8.89662687660486,-3.50593540099153,5.14959907780945));
#569=UNCERTAINTY_MEASURE_WITH_UNIT(LENGTH_MEASURE(0.01),#573,
'DISTANCE_ACCURACY_VALUE',
'Maximum model space distance between geometric entities at asserted c
onnectivities');
#570=UNCERTAINTY_MEASURE_WITH_UNIT(LENGTH_MEASURE(1.E-6),#573,
'DISTANCE_ACCURACY_VALUE',
'Maximum model space distance between geometric entities at asserted c
onnectivities');
#571=(
GEOMETRIC_REPRESENTATION_CONTEXT(3)
GLOBAL_UNCERTAINTY_ASSIGNED_CONTEXT((#569))
GLOBAL_UNIT_ASSIGNED_CONTEXT((#573,#576,#574))
REPRESENTATION_CONTEXT('','3D')
);
#572=(
GEOMETRIC_REPRESENTATION_CONTEXT(3)
GLOBAL_UNCERTAINTY_ASSIGNED_CONTEXT((#570))
GLOBAL_UNIT_ASSIGNED_CONTEXT((#573,#576,#574))
REPRESENTATION_CONTEXT('','3D')
);
#573=(
LENGTH_UNIT()
NAMED_UNIT(*)
SI_UNIT(.MILLI.,.METRE.)
);
#574=(
NAMED_UNIT(*)
SI_UNIT($,.STERADIAN.)
SOLID_ANGLE_UNIT()
);
#575=DIMENSIONAL_EXPONENTS(0.,0.,0.,0.,0.,0.,0.);
#576=(
CONVERSION_BASED_UNIT('degree',#578)
NAMED_UNIT(#575)
PLANE_ANGLE_UNIT()
);
#577=(
NAMED_UNIT(*)
PLANE_ANGLE_UNIT()
SI_UNIT($,.RADIAN.)
);
#578=PLANE_ANGLE_MEASURE_WITH_UNIT(PLANE_ANGLE_MEASURE(0.01745329252),#577);
#579=SHAPE_DEFINITION_REPRESENTATION(#580,#581);
#580=PRODUCT_DEFINITION_SHAPE('',$,#583);
#581=SHAPE_REPRESENTATION('',(#318),#571);
#582=PRODUCT_DEFINITION_CONTEXT('part definition',#587,'design');
#583=PRODUCT_DEFINITION('iqsc_40_msv','iqsc_40_msv',#584,#582);
#584=PRODUCT_DEFINITION_FORMATION('',$,#589);
#585=PRODUCT_RELATED_PRODUCT_CATEGORY('iqsc_40_msv','iqsc_40_msv',(#589));
#586=APPLICATION_PROTOCOL_DEFINITION('international standard',
'automotive_design',2009,#587);
#587=APPLICATION_CONTEXT(
'Core Data for Automotive Mechanical Design Process');
#588=PRODUCT_CONTEXT('part definition',#587,'mechanical');
#589=PRODUCT('iqsc_40_msv','iqsc_40_msv',$,(#588));
#590=PRESENTATION_STYLE_ASSIGNMENT((#592));
#591=PRESENTATION_STYLE_ASSIGNMENT((#593));
#592=SURFACE_STYLE_USAGE(.BOTH.,#594);
#593=SURFACE_STYLE_USAGE(.BOTH.,#595);
#594=SURFACE_SIDE_STYLE($,(#596));
#595=SURFACE_SIDE_STYLE($,(#597));
#596=SURFACE_STYLE_FILL_AREA(#598);
#597=SURFACE_STYLE_FILL_AREA(#599);
#598=FILL_AREA_STYLE($,(#600));
#599=FILL_AREA_STYLE($,(#601));
#600=FILL_AREA_STYLE_COLOUR($,#602);
#601=FILL_AREA_STYLE_COLOUR($,#603);
#602=COLOUR_RGB('',0.749019607843137,0.749019607843137,0.749019607843137);
#603=COLOUR_RGB('',0.831372549019608,0.792156862745098,0.819607843137255);
ENDSEC;
END-ISO-10303-21;
