ISO-10303-21;
HEADER;
FILE_DESCRIPTION( ( 'STEP AP214' ), '1' );
FILE_NAME( 'C:/Users/azilaghe/AppData/Local/Temp/psolqas_13404_24.stp', '2021-03-04T17:12:04', ( 'License CC BY-ND 4.0' ), ( 'CADENAS' ), ' ', 'PARTsolutions', ' ' );
FILE_SCHEMA( ( 'AUTOMOTIVE_DESIGN { 1 0 10303 214 1 1 1 1 }' ) );
ENDSEC;
DATA;
#1 = MECHANICAL_DESIGN_GEOMETRIC_PRESENTATION_REPRESENTATION( ' ', ( #10, #11, #12, #13, #14, #15, #16, #17, #18, #19 ), #6 );
#2 = PRODUCT_DEFINITION_CONTEXT( '', #20, 'design' );
#3 = APPLICATION_PROTOCOL_DEFINITION( 'international standard', 'automotive_design', 2001, #20 );
#4 = PRODUCT_CATEGORY_RELATIONSHIP( 'NONE', 'NONE', #21, #22 );
#5 = SHAPE_DEFINITION_REPRESENTATION( #23, #24 );
#6 =  ( GEOMETRIC_REPRESENTATION_CONTEXT( 3 )GLOBAL_UNCERTAINTY_ASSIGNED_CONTEXT( ( #27 ) )GLOBAL_UNIT_ASSIGNED_CONTEXT( ( #29, #30, #31 ) )REPRESENTATION_CONTEXT( 'NONE', 'WORKSPACE' ) );
#10 = STYLED_ITEM( '', ( #33 ), #34 );
#11 = STYLED_ITEM( '', ( #35 ), #36 );
#12 = STYLED_ITEM( '', ( #37 ), #38 );
#13 = STYLED_ITEM( '', ( #39 ), #40 );
#14 = STYLED_ITEM( '', ( #41 ), #42 );
#15 = STYLED_ITEM( '', ( #43 ), #44 );
#16 = STYLED_ITEM( '', ( #45 ), #46 );
#17 = STYLED_ITEM( '', ( #47 ), #48 );
#18 = STYLED_ITEM( '', ( #49 ), #50 );
#19 = STYLED_ITEM( '', ( #51 ), #52 );
#20 = APPLICATION_CONTEXT( 'core data for automotive mechanical design processes' );
#21 = PRODUCT_CATEGORY( 'part', 'NONE' );
#22 = PRODUCT_RELATED_PRODUCT_CATEGORY( 'detail', ' ', ( #53 ) );
#23 = PRODUCT_DEFINITION_SHAPE( 'NONE', 'NONE', #54 );
#24 = ADVANCED_BREP_SHAPE_REPRESENTATION( 'NONE', ( #55, #56 ), #6 );
#27 = UNCERTAINTY_MEASURE_WITH_UNIT( LENGTH_MEASURE( 1.00000000000000E-06 ), #29, '', '' );
#29 =  ( CONVERSION_BASED_UNIT( 'METRE', #59 )LENGTH_UNIT(  )NAMED_UNIT( #62 ) );
#30 =  ( NAMED_UNIT( #64 )PLANE_ANGLE_UNIT(  )SI_UNIT( $, .RADIAN. ) );
#31 =  ( NAMED_UNIT( #64 )SI_UNIT( $, .STERADIAN. )SOLID_ANGLE_UNIT(  ) );
#33 = PRESENTATION_STYLE_ASSIGNMENT( ( #70 ) );
#34 = ADVANCED_FACE( 'NONE', ( #71, #72 ), #73, .T. );
#35 = PRESENTATION_STYLE_ASSIGNMENT( ( #74 ) );
#36 = ADVANCED_FACE( 'NONE', ( #75, #76 ), #77, .F. );
#37 = PRESENTATION_STYLE_ASSIGNMENT( ( #78 ) );
#38 = ADVANCED_FACE( 'NONE', ( #79, #80 ), #81, .T. );
#39 = PRESENTATION_STYLE_ASSIGNMENT( ( #82 ) );
#40 = ADVANCED_FACE( 'NONE', ( #83, #84 ), #85, .T. );
#41 = PRESENTATION_STYLE_ASSIGNMENT( ( #86 ) );
#42 = ADVANCED_FACE( 'NONE', ( #87, #88 ), #89, .T. );
#43 = PRESENTATION_STYLE_ASSIGNMENT( ( #90 ) );
#44 = ADVANCED_FACE( 'NONE', ( #91, #92 ), #93, .T. );
#45 = PRESENTATION_STYLE_ASSIGNMENT( ( #94 ) );
#46 = ADVANCED_FACE( 'NONE', ( #95, #96 ), #97, .T. );
#47 = PRESENTATION_STYLE_ASSIGNMENT( ( #98 ) );
#48 = ADVANCED_FACE( 'NONE', ( #99, #100 ), #101, .T. );
#49 = PRESENTATION_STYLE_ASSIGNMENT( ( #102 ) );
#50 = ADVANCED_FACE( 'NONE', ( #103, #104 ), #105, .T. );
#51 = PRESENTATION_STYLE_ASSIGNMENT( ( #106 ) );
#52 = ADVANCED_FACE( 'NONE', ( #107, #108 ), #109, .T. );
#53 = PRODUCT( 'NONE', 'NONE', 'PART-NONE-DESC', ( #110 ) );
#54 = PRODUCT_DEFINITION( 'NONE', 'NONE', #111, #2 );
#55 = MANIFOLD_SOLID_BREP( 'NONE', #112 );
#56 = AXIS2_PLACEMENT_3D( '', #113, #114, #115 );
#59 = LENGTH_MEASURE_WITH_UNIT( LENGTH_MEASURE( 1.00000000000000 ), #116 );
#62 = DIMENSIONAL_EXPONENTS( 1.00000000000000, 0.000000000000000, 0.000000000000000, 0.000000000000000, 0.000000000000000, 0.000000000000000, 0.000000000000000 );
#64 = DIMENSIONAL_EXPONENTS( 0.000000000000000, 0.000000000000000, 0.000000000000000, 0.000000000000000, 0.000000000000000, 0.000000000000000, 0.000000000000000 );
#70 = SURFACE_STYLE_USAGE( .BOTH., #117 );
#71 = FACE_OUTER_BOUND( '', #118, .T. );
#72 = FACE_BOUND( '', #119, .T. );
#73 = PLANE( '', #120 );
#74 = SURFACE_STYLE_USAGE( .BOTH., #121 );
#75 = FACE_OUTER_BOUND( '', #122, .T. );
#76 = FACE_OUTER_BOUND( '', #123, .T. );
#77 = CYLINDRICAL_SURFACE( '', #124, 0.00285000000000000 );
#78 = SURFACE_STYLE_USAGE( .BOTH., #125 );
#79 = FACE_OUTER_BOUND( '', #126, .T. );
#80 = FACE_BOUND( '', #127, .T. );
#81 = CONICAL_SURFACE( '', #128, 0.00397500000000000, 0.785398163400000 );
#82 = SURFACE_STYLE_USAGE( .BOTH., #129 );
#83 = FACE_OUTER_BOUND( '', #130, .T. );
#84 = FACE_BOUND( '', #131, .T. );
#85 = CONICAL_SURFACE( '', #132, 0.00367500000000000, 0.785398163400000 );
#86 = SURFACE_STYLE_USAGE( .BOTH., #133 );
#87 = FACE_OUTER_BOUND( '', #134, .T. );
#88 = FACE_BOUND( '', #135, .T. );
#89 = CONICAL_SURFACE( '', #136, 0.00600000000000000, 1.22173047640000 );
#90 = SURFACE_STYLE_USAGE( .BOTH., #137 );
#91 = FACE_OUTER_BOUND( '', #138, .T. );
#92 = FACE_OUTER_BOUND( '', #139, .T. );
#93 = CYLINDRICAL_SURFACE( '', #140, 0.00600000000000000 );
#94 = SURFACE_STYLE_USAGE( .BOTH., #141 );
#95 = FACE_OUTER_BOUND( '', #142, .T. );
#96 = FACE_BOUND( '', #143, .T. );
#97 = CONICAL_SURFACE( '', #144, 0.00397500000000000, 1.22173047640000 );
#98 = SURFACE_STYLE_USAGE( .BOTH., #145 );
#99 = FACE_OUTER_BOUND( '', #146, .T. );
#100 = FACE_OUTER_BOUND( '', #147, .T. );
#101 = CYLINDRICAL_SURFACE( '', #148, 0.00397500000000000 );
#102 = SURFACE_STYLE_USAGE( .BOTH., #149 );
#103 = FACE_OUTER_BOUND( '', #150, .T. );
#104 = FACE_BOUND( '', #151, .T. );
#105 = PLANE( '', #152 );
#106 = SURFACE_STYLE_USAGE( .BOTH., #153 );
#107 = FACE_OUTER_BOUND( '', #154, .T. );
#108 = FACE_OUTER_BOUND( '', #155, .T. );
#109 = CYLINDRICAL_SURFACE( '', #156, 0.00397500000000000 );
#110 = PRODUCT_CONTEXT( '', #20, 'mechanical' );
#111 = PRODUCT_DEFINITION_FORMATION_WITH_SPECIFIED_SOURCE( ' ', 'NONE', #53, .NOT_KNOWN. );
#112 = CLOSED_SHELL( '', ( #48, #38, #42, #52, #36, #40, #44, #34, #46, #50 ) );
#113 = CARTESIAN_POINT( '', ( 0.000000000000000, 0.000000000000000, 0.000000000000000 ) );
#114 = DIRECTION( '', ( 0.000000000000000, 0.000000000000000, 1.00000000000000 ) );
#115 = DIRECTION( '', ( 1.00000000000000, 0.000000000000000, 0.000000000000000 ) );
#116 =  ( LENGTH_UNIT(  )NAMED_UNIT( #62 )SI_UNIT( $, .METRE. ) );
#117 = SURFACE_SIDE_STYLE( '', ( #158 ) );
#118 = EDGE_LOOP( '', ( #159 ) );
#119 = EDGE_LOOP( '', ( #160 ) );
#120 = AXIS2_PLACEMENT_3D( '', #161, #162, #163 );
#121 = SURFACE_SIDE_STYLE( '', ( #164 ) );
#122 = EDGE_LOOP( '', ( #165 ) );
#123 = EDGE_LOOP( '', ( #166 ) );
#124 = AXIS2_PLACEMENT_3D( '', #167, #168, #169 );
#125 = SURFACE_SIDE_STYLE( '', ( #170 ) );
#126 = EDGE_LOOP( '', ( #171 ) );
#127 = EDGE_LOOP( '', ( #172 ) );
#128 = AXIS2_PLACEMENT_3D( '', #173, #174, #175 );
#129 = SURFACE_SIDE_STYLE( '', ( #176 ) );
#130 = EDGE_LOOP( '', ( #177 ) );
#131 = EDGE_LOOP( '', ( #178 ) );
#132 = AXIS2_PLACEMENT_3D( '', #179, #180, #181 );
#133 = SURFACE_SIDE_STYLE( '', ( #182 ) );
#134 = EDGE_LOOP( '', ( #183 ) );
#135 = EDGE_LOOP( '', ( #184 ) );
#136 = AXIS2_PLACEMENT_3D( '', #185, #186, #187 );
#137 = SURFACE_SIDE_STYLE( '', ( #188 ) );
#138 = EDGE_LOOP( '', ( #189 ) );
#139 = EDGE_LOOP( '', ( #190 ) );
#140 = AXIS2_PLACEMENT_3D( '', #191, #192, #193 );
#141 = SURFACE_SIDE_STYLE( '', ( #194 ) );
#142 = EDGE_LOOP( '', ( #195 ) );
#143 = EDGE_LOOP( '', ( #196 ) );
#144 = AXIS2_PLACEMENT_3D( '', #197, #198, #199 );
#145 = SURFACE_SIDE_STYLE( '', ( #200 ) );
#146 = EDGE_LOOP( '', ( #201 ) );
#147 = EDGE_LOOP( '', ( #202 ) );
#148 = AXIS2_PLACEMENT_3D( '', #203, #204, #205 );
#149 = SURFACE_SIDE_STYLE( '', ( #206 ) );
#150 = EDGE_LOOP( '', ( #207 ) );
#151 = EDGE_LOOP( '', ( #208 ) );
#152 = AXIS2_PLACEMENT_3D( '', #209, #210, #211 );
#153 = SURFACE_SIDE_STYLE( '', ( #212 ) );
#154 = EDGE_LOOP( '', ( #213 ) );
#155 = EDGE_LOOP( '', ( #214 ) );
#156 = AXIS2_PLACEMENT_3D( '', #215, #216, #217 );
#158 = SURFACE_STYLE_FILL_AREA( #218 );
#159 = ORIENTED_EDGE( '', *, *, #219, .T. );
#160 = ORIENTED_EDGE( '', *, *, #220, .F. );
#161 = CARTESIAN_POINT( '', ( 0.00367500000000000, -1.53080849893416E-21, 0.000000000000000 ) );
#162 = DIRECTION( '', ( 0.000000000000000, -1.00000000000000, 0.000000000000000 ) );
#163 = DIRECTION( '', ( 0.000000000000000, 0.000000000000000, -1.00000000000000 ) );
#164 = SURFACE_STYLE_FILL_AREA( #221 );
#165 = ORIENTED_EDGE( '', *, *, #220, .T. );
#166 = ORIENTED_EDGE( '', *, *, #222, .F. );
#167 = CARTESIAN_POINT( '', ( 0.000000000000000, -0.00247562800656750, 0.000000000000000 ) );
#168 = DIRECTION( '', ( -0.000000000000000, 1.00000000000000, -0.000000000000000 ) );
#169 = DIRECTION( '', ( 0.000000000000000, 0.000000000000000, -1.00000000000000 ) );
#170 = SURFACE_STYLE_FILL_AREA( #223 );
#171 = ORIENTED_EDGE( '', *, *, #224, .F. );
#172 = ORIENTED_EDGE( '', *, *, #225, .T. );
#173 = CARTESIAN_POINT( '', ( 0.000000000000000, 0.0437000000000000, 0.000000000000000 ) );
#174 = DIRECTION( '', ( 0.000000000000000, -1.00000000000000, -0.000000000000000 ) );
#175 = DIRECTION( '', ( 0.000000000000000, 0.000000000000000, -1.00000000000000 ) );
#176 = SURFACE_STYLE_FILL_AREA( #226 );
#177 = ORIENTED_EDGE( '', *, *, #227, .T. );
#178 = ORIENTED_EDGE( '', *, *, #219, .F. );
#179 = CARTESIAN_POINT( '', ( 0.000000000000000, -3.06161699786832E-21, 0.000000000000000 ) );
#180 = DIRECTION( '', ( -0.000000000000000, 1.00000000000000, -0.000000000000000 ) );
#181 = DIRECTION( '', ( 0.000000000000000, 0.000000000000000, 1.00000000000000 ) );
#182 = SURFACE_STYLE_FILL_AREA( #228 );
#183 = ORIENTED_EDGE( '', *, *, #229, .F. );
#184 = ORIENTED_EDGE( '', *, *, #230, .T. );
#185 = CARTESIAN_POINT( '', ( 0.000000000000000, 0.0232629602756110, 0.000000000000000 ) );
#186 = DIRECTION( '', ( 0.000000000000000, -1.00000000000000, -0.000000000000000 ) );
#187 = DIRECTION( '', ( 0.000000000000000, 0.000000000000000, -1.00000000000000 ) );
#188 = SURFACE_STYLE_FILL_AREA( #231 );
#189 = ORIENTED_EDGE( '', *, *, #232, .F. );
#190 = ORIENTED_EDGE( '', *, *, #229, .T. );
#191 = CARTESIAN_POINT( '', ( 0.000000000000000, 0.000000000000000, 0.000000000000000 ) );
#192 = DIRECTION( '', ( -0.000000000000000, 1.00000000000000, -0.000000000000000 ) );
#193 = DIRECTION( '', ( 0.000000000000000, 0.000000000000000, -1.00000000000000 ) );
#194 = SURFACE_STYLE_FILL_AREA( #233 );
#195 = ORIENTED_EDGE( '', *, *, #232, .T. );
#196 = ORIENTED_EDGE( '', *, *, #234, .F. );
#197 = CARTESIAN_POINT( '', ( 0.000000000000000, 0.0200000000000000, 0.000000000000000 ) );
#198 = DIRECTION( '', ( -0.000000000000000, 1.00000000000000, -0.000000000000000 ) );
#199 = DIRECTION( '', ( 0.000000000000000, 0.000000000000000, 1.00000000000000 ) );
#200 = SURFACE_STYLE_FILL_AREA( #235 );
#201 = ORIENTED_EDGE( '', *, *, #230, .F. );
#202 = ORIENTED_EDGE( '', *, *, #224, .T. );
#203 = CARTESIAN_POINT( '', ( 0.000000000000000, 0.000000000000000, 0.000000000000000 ) );
#204 = DIRECTION( '', ( -0.000000000000000, 1.00000000000000, -0.000000000000000 ) );
#205 = DIRECTION( '', ( 0.000000000000000, 0.000000000000000, -1.00000000000000 ) );
#206 = SURFACE_STYLE_FILL_AREA( #236 );
#207 = ORIENTED_EDGE( '', *, *, #225, .F. );
#208 = ORIENTED_EDGE( '', *, *, #222, .T. );
#209 = CARTESIAN_POINT( '', ( 0.000000000000000, 0.0440000000000000, 0.000000000000000 ) );
#210 = DIRECTION( '', ( -0.000000000000000, 1.00000000000000, 0.000000000000000 ) );
#211 = DIRECTION( '', ( 1.00000000000000, 0.000000000000000, 0.000000000000000 ) );
#212 = SURFACE_STYLE_FILL_AREA( #237 );
#213 = ORIENTED_EDGE( '', *, *, #227, .F. );
#214 = ORIENTED_EDGE( '', *, *, #234, .T. );
#215 = CARTESIAN_POINT( '', ( 0.000000000000000, 0.000000000000000, 0.000000000000000 ) );
#216 = DIRECTION( '', ( -0.000000000000000, 1.00000000000000, -0.000000000000000 ) );
#217 = DIRECTION( '', ( 0.000000000000000, 0.000000000000000, -1.00000000000000 ) );
#218 = FILL_AREA_STYLE( '', ( #238 ) );
#219 = EDGE_CURVE( 'NONE', #239, #239, #240, .T. );
#220 = EDGE_CURVE( 'NONE', #241, #241, #242, .T. );
#221 = FILL_AREA_STYLE( '', ( #243 ) );
#222 = EDGE_CURVE( 'NONE', #244, #244, #245, .T. );
#223 = FILL_AREA_STYLE( '', ( #246 ) );
#224 = EDGE_CURVE( 'NONE', #247, #247, #248, .T. );
#225 = EDGE_CURVE( 'NONE', #249, #249, #250, .T. );
#226 = FILL_AREA_STYLE( '', ( #251 ) );
#227 = EDGE_CURVE( 'NONE', #252, #252, #253, .T. );
#228 = FILL_AREA_STYLE( '', ( #254 ) );
#229 = EDGE_CURVE( 'NONE', #255, #255, #256, .T. );
#230 = EDGE_CURVE( 'NONE', #257, #257, #258, .T. );
#231 = FILL_AREA_STYLE( '', ( #259 ) );
#232 = EDGE_CURVE( 'NONE', #260, #260, #261, .T. );
#233 = FILL_AREA_STYLE( '', ( #262 ) );
#234 = EDGE_CURVE( 'NONE', #263, #263, #264, .T. );
#235 = FILL_AREA_STYLE( '', ( #265 ) );
#236 = FILL_AREA_STYLE( '', ( #266 ) );
#237 = FILL_AREA_STYLE( '', ( #267 ) );
#238 = FILL_AREA_STYLE_COLOUR( '', #268 );
#239 = VERTEX_POINT( '', #269 );
#240 = CIRCLE( '', #270, 0.00367500000000000 );
#241 = VERTEX_POINT( '', #271 );
#242 = CIRCLE( '', #272, 0.00285000000000000 );
#243 = FILL_AREA_STYLE_COLOUR( '', #273 );
#244 = VERTEX_POINT( '', #274 );
#245 = CIRCLE( '', #275, 0.00285000000000000 );
#246 = FILL_AREA_STYLE_COLOUR( '', #276 );
#247 = VERTEX_POINT( '', #277 );
#248 = CIRCLE( '', #278, 0.00397500000000000 );
#249 = VERTEX_POINT( '', #279 );
#250 = CIRCLE( '', #280, 0.00367500000000000 );
#251 = FILL_AREA_STYLE_COLOUR( '', #281 );
#252 = VERTEX_POINT( '', #282 );
#253 = CIRCLE( '', #283, 0.00397500000000000 );
#254 = FILL_AREA_STYLE_COLOUR( '', #284 );
#255 = VERTEX_POINT( '', #285 );
#256 = CIRCLE( '', #286, 0.00600000000000000 );
#257 = VERTEX_POINT( '', #287 );
#258 = CIRCLE( '', #288, 0.00397500000000000 );
#259 = FILL_AREA_STYLE_COLOUR( '', #289 );
#260 = VERTEX_POINT( '', #290 );
#261 = CIRCLE( '', #291, 0.00600000000000000 );
#262 = FILL_AREA_STYLE_COLOUR( '', #292 );
#263 = VERTEX_POINT( '', #293 );
#264 = CIRCLE( '', #294, 0.00397500000000000 );
#265 = FILL_AREA_STYLE_COLOUR( '', #295 );
#266 = FILL_AREA_STYLE_COLOUR( '', #296 );
#267 = FILL_AREA_STYLE_COLOUR( '', #297 );
#268 = COLOUR_RGB( '', 0.250980407000000, 0.250980407000000, 0.250980407000000 );
#269 = CARTESIAN_POINT( '', ( 0.000000000000000, -2.54003061616998E-16, -0.00367500000000025 ) );
#270 = AXIS2_PLACEMENT_3D( '', #298, #299, #300 );
#271 = CARTESIAN_POINT( '', ( 0.000000000000000, 0.000000000000000, -0.00285000000000025 ) );
#272 = AXIS2_PLACEMENT_3D( '', #301, #302, #303 );
#273 = COLOUR_RGB( '', 0.250980407000000, 0.250980407000000, 0.250980407000000 );
#274 = CARTESIAN_POINT( '', ( 0.000000000000000, 0.0440000000000003, -0.00285000000000025 ) );
#275 = AXIS2_PLACEMENT_3D( '', #304, #305, #306 );
#276 = COLOUR_RGB( '', 0.250980407000000, 0.250980407000000, 0.250980407000000 );
#277 = CARTESIAN_POINT( '', ( 0.000000000000000, 0.0437000000000003, -0.00397500000000026 ) );
#278 = AXIS2_PLACEMENT_3D( '', #307, #308, #309 );
#279 = CARTESIAN_POINT( '', ( 0.000000000000000, 0.0440000000000003, -0.00367500000000025 ) );
#280 = AXIS2_PLACEMENT_3D( '', #310, #311, #312 );
#281 = COLOUR_RGB( '', 0.250980407000000, 0.250980407000000, 0.250980407000000 );
#282 = CARTESIAN_POINT( '', ( 0.000000000000000, 0.000300000000000254, -0.00397500000000026 ) );
#283 = AXIS2_PLACEMENT_3D( '', #313, #314, #315 );
#284 = COLOUR_RGB( '', 0.250980407000000, 0.250980407000000, 0.250980407000000 );
#285 = CARTESIAN_POINT( '', ( 0.000000000000000, 0.0232629602756112, -0.00600000000000025 ) );
#286 = AXIS2_PLACEMENT_3D( '', #316, #317, #318 );
#287 = CARTESIAN_POINT( '', ( 0.000000000000000, 0.0240000000000003, -0.00397500000000026 ) );
#288 = AXIS2_PLACEMENT_3D( '', #319, #320, #321 );
#289 = COLOUR_RGB( '', 0.250980407000000, 0.250980407000000, 0.250980407000000 );
#290 = CARTESIAN_POINT( '', ( 0.000000000000000, 0.0207370397243893, -0.00600000000000025 ) );
#291 = AXIS2_PLACEMENT_3D( '', #322, #323, #324 );
#292 = COLOUR_RGB( '', 0.250980407000000, 0.250980407000000, 0.250980407000000 );
#293 = CARTESIAN_POINT( '', ( 0.000000000000000, 0.0200000000000003, -0.00397500000000026 ) );
#294 = AXIS2_PLACEMENT_3D( '', #325, #326, #327 );
#295 = COLOUR_RGB( '', 0.250980407000000, 0.250980407000000, 0.250980407000000 );
#296 = COLOUR_RGB( '', 0.250980407000000, 0.250980407000000, 0.250980407000000 );
#297 = COLOUR_RGB( '', 0.250980407000000, 0.250980407000000, 0.250980407000000 );
#298 = CARTESIAN_POINT( '', ( 0.000000000000000, -2.54003061616998E-16, 0.000000000000000 ) );
#299 = DIRECTION( '', ( 0.000000000000000, -1.00000000000000, 0.000000000000000 ) );
#300 = DIRECTION( '', ( 0.000000000000000, 0.000000000000000, -1.00000000000000 ) );
#301 = CARTESIAN_POINT( '', ( 0.000000000000000, 0.000000000000000, 0.000000000000000 ) );
#302 = DIRECTION( '', ( 0.000000000000000, -1.00000000000000, 0.000000000000000 ) );
#303 = DIRECTION( '', ( 0.000000000000000, 0.000000000000000, -1.00000000000000 ) );
#304 = CARTESIAN_POINT( '', ( 0.000000000000000, 0.0440000000000003, 0.000000000000000 ) );
#305 = DIRECTION( '', ( 0.000000000000000, -1.00000000000000, 0.000000000000000 ) );
#306 = DIRECTION( '', ( 0.000000000000000, 0.000000000000000, -1.00000000000000 ) );
#307 = CARTESIAN_POINT( '', ( 0.000000000000000, 0.0437000000000003, 0.000000000000000 ) );
#308 = DIRECTION( '', ( 0.000000000000000, -1.00000000000000, 0.000000000000000 ) );
#309 = DIRECTION( '', ( 0.000000000000000, 0.000000000000000, -1.00000000000000 ) );
#310 = CARTESIAN_POINT( '', ( 0.000000000000000, 0.0440000000000003, 0.000000000000000 ) );
#311 = DIRECTION( '', ( 0.000000000000000, -1.00000000000000, 0.000000000000000 ) );
#312 = DIRECTION( '', ( 0.000000000000000, 0.000000000000000, -1.00000000000000 ) );
#313 = CARTESIAN_POINT( '', ( 0.000000000000000, 0.000300000000000254, 0.000000000000000 ) );
#314 = DIRECTION( '', ( 0.000000000000000, -1.00000000000000, 0.000000000000000 ) );
#315 = DIRECTION( '', ( 0.000000000000000, 0.000000000000000, -1.00000000000000 ) );
#316 = CARTESIAN_POINT( '', ( 0.000000000000000, 0.0232629602756112, 0.000000000000000 ) );
#317 = DIRECTION( '', ( 0.000000000000000, -1.00000000000000, 0.000000000000000 ) );
#318 = DIRECTION( '', ( 0.000000000000000, 0.000000000000000, -1.00000000000000 ) );
#319 = CARTESIAN_POINT( '', ( 0.000000000000000, 0.0240000000000003, 0.000000000000000 ) );
#320 = DIRECTION( '', ( 0.000000000000000, -1.00000000000000, 0.000000000000000 ) );
#321 = DIRECTION( '', ( 0.000000000000000, 0.000000000000000, -1.00000000000000 ) );
#322 = CARTESIAN_POINT( '', ( 0.000000000000000, 0.0207370397243893, 0.000000000000000 ) );
#323 = DIRECTION( '', ( 0.000000000000000, -1.00000000000000, 0.000000000000000 ) );
#324 = DIRECTION( '', ( 0.000000000000000, 0.000000000000000, -1.00000000000000 ) );
#325 = CARTESIAN_POINT( '', ( 0.000000000000000, 0.0200000000000003, 0.000000000000000 ) );
#326 = DIRECTION( '', ( 0.000000000000000, -1.00000000000000, 0.000000000000000 ) );
#327 = DIRECTION( '', ( 0.000000000000000, 0.000000000000000, -1.00000000000000 ) );
ENDSEC;
END-ISO-10303-21;
