ISO-10303-21;
HEADER;
FILE_DESCRIPTION( ( 'STEP AP203' ), '1' );
FILE_NAME( 'p:/temp/worker_691/temp/exporttempdir_3644_301_c52T9/format_0/PL25_6MCRPL.stp', '2020-06-02T14:04:55', ( 'License CC BY-ND 4.0' ), ( 'CADENAS' ), ' ', 'PARTsolutions', ' ' );
FILE_SCHEMA( ( 'CONFIG_CONTROL_DESIGN' ) );
ENDSEC;
DATA;
#1 = DESIGN_CONTEXT( '', #27, 'design' );
#2 = APPLICATION_PROTOCOL_DEFINITION( 'international standard', 'config_control_design', 1994, #27 );
#3 = PRODUCT_CATEGORY_RELATIONSHIP( 'NONE', 'NONE', #28, #29 );
#4 = DATE_AND_TIME( #30, #31 );
#5 = DATE_TIME_ROLE( 'creation_date' );
#6 = DATE_TIME_ROLE( 'classification_date' );
#7 = PERSON_AND_ORGANIZATION_ROLE( 'creator' );
#8 = PERSON_AND_ORGANIZATION_ROLE( 'design_supplier' );
#9 = PERSON_AND_ORGANIZATION_ROLE( 'classification_officer' );
#10 = PERSON_AND_ORGANIZATION_ROLE( 'design_owner' );
#11 = APPROVAL_PERSON_ORGANIZATION( #32, #33, #34 );
#12 = APPROVAL_DATE_TIME( #4, #33 );
#13 = CC_DESIGN_APPROVAL( #33, ( #35, #36, #37 ) );
#14 = CC_DESIGN_DATE_AND_TIME_ASSIGNMENT( #4, #5, ( #37 ) );
#15 = CC_DESIGN_DATE_AND_TIME_ASSIGNMENT( #4, #6, ( #35 ) );
#16 = CC_DESIGN_PERSON_AND_ORGANIZATION_ASSIGNMENT( #32, #10, ( #38 ) );
#17 = CC_DESIGN_PERSON_AND_ORGANIZATION_ASSIGNMENT( #32, #7, ( #37 ) );
#18 = CC_DESIGN_PERSON_AND_ORGANIZATION_ASSIGNMENT( #32, #7, ( #36 ) );
#19 = CC_DESIGN_PERSON_AND_ORGANIZATION_ASSIGNMENT( #32, #8, ( #36 ) );
#20 = CC_DESIGN_SECURITY_CLASSIFICATION( #35, ( #36 ) );
#21 = CC_DESIGN_PERSON_AND_ORGANIZATION_ASSIGNMENT( #32, #9, ( #35 ) );
#22 = SHAPE_DEFINITION_REPRESENTATION( #39, #40 );
#23 =  ( GEOMETRIC_REPRESENTATION_CONTEXT( 3 )GLOBAL_UNCERTAINTY_ASSIGNED_CONTEXT( ( #43 ) )GLOBAL_UNIT_ASSIGNED_CONTEXT( ( #45, #46, #47 ) )REPRESENTATION_CONTEXT( 'NONE', 'WORKSPACE' ) );
#27 = APPLICATION_CONTEXT( 'configuration controlled 3D designs of mechanical parts and assemblies' );
#28 = PRODUCT_CATEGORY( 'part', 'NONE' );
#29 = PRODUCT_RELATED_PRODUCT_CATEGORY( 'detail', ' ', ( #38 ) );
#30 = CALENDAR_DATE( 2020, 2, 5 );
#31 = LOCAL_TIME( 16, 4, 55.0000000000000, #49 );
#32 = PERSON_AND_ORGANIZATION( #50, #51 );
#33 = APPROVAL( #52, 'SOLID MODEL' );
#34 = APPROVAL_ROLE( 'APPROVED' );
#35 = SECURITY_CLASSIFICATION( '', '', #53 );
#36 = PRODUCT_DEFINITION_FORMATION_WITH_SPECIFIED_SOURCE( ' ', 'NONE', #38, .NOT_KNOWN. );
#37 = PRODUCT_DEFINITION( 'NONE', 'NONE', #36, #1 );
#38 = PRODUCT( '_PL25/6MCRPL', '_PL25/6MCRPL', 'PART-_PL25/6MCRPL-DESC', ( #54 ) );
#39 = PRODUCT_DEFINITION_SHAPE( 'NONE', 'NONE', #37 );
#40 = ADVANCED_BREP_SHAPE_REPRESENTATION( '_PL25/6MCRPL', ( #55, #56 ), #23 );
#43 = UNCERTAINTY_MEASURE_WITH_UNIT( LENGTH_MEASURE( 0.00100000000000000 ), #45, '', '' );
#45 =  ( CONVERSION_BASED_UNIT( 'MILLIMETRE', #59 )LENGTH_UNIT(  )NAMED_UNIT( #62 ) );
#46 =  ( NAMED_UNIT( #64 )PLANE_ANGLE_UNIT(  )SI_UNIT( $, .RADIAN. ) );
#47 =  ( NAMED_UNIT( #64 )SI_UNIT( $, .STERADIAN. )SOLID_ANGLE_UNIT(  ) );
#49 = COORDINATED_UNIVERSAL_TIME_OFFSET( 1, 0, .AHEAD. );
#50 = PERSON( '', 'UNSPECIFIED', $, $, $, $ );
#51 = ORGANIZATION( 'UNSPECIFIED', 'UNSPECIFIED', 'UNSPECIFIED' );
#52 = APPROVAL_STATUS( 'approved' );
#53 = SECURITY_CLASSIFICATION_LEVEL( 'unclassified' );
#54 = MECHANICAL_CONTEXT( '', #27, 'mechanical' );
#55 = MANIFOLD_SOLID_BREP( '_PL25/6MCRPL', #70 );
#56 = AXIS2_PLACEMENT_3D( '', #71, #72, #73 );
#59 = LENGTH_MEASURE_WITH_UNIT( LENGTH_MEASURE( 1.00000000000000 ), #74 );
#62 = DIMENSIONAL_EXPONENTS( 1.00000000000000, 0.000000000000000, 0.000000000000000, 0.000000000000000, 0.000000000000000, 0.000000000000000, 0.000000000000000 );
#64 = DIMENSIONAL_EXPONENTS( 0.000000000000000, 0.000000000000000, 0.000000000000000, 0.000000000000000, 0.000000000000000, 0.000000000000000, 0.000000000000000 );
#70 = CLOSED_SHELL( '', ( #75, #76, #77, #78, #79, #80, #81, #82, #83, #84, #85, #86 ) );
#71 = CARTESIAN_POINT( '', ( 0.000000000000000, 0.000000000000000, 0.000000000000000 ) );
#72 = DIRECTION( '', ( 0.000000000000000, 0.000000000000000, 1.00000000000000 ) );
#73 = DIRECTION( '', ( 1.00000000000000, 0.000000000000000, 0.000000000000000 ) );
#74 =  ( LENGTH_UNIT(  )NAMED_UNIT( #62 )SI_UNIT( .MILLI., .METRE. ) );
#75 = ADVANCED_FACE( '', ( #88, #89, #90 ), #91, .F. );
#76 = ADVANCED_FACE( '', ( #92 ), #93, .T. );
#77 = ADVANCED_FACE( '', ( #94, #95, #96 ), #97, .F. );
#78 = ADVANCED_FACE( '', ( #98 ), #99, .F. );
#79 = ADVANCED_FACE( '', ( #100, #101, #102 ), #103, .F. );
#80 = ADVANCED_FACE( '', ( #104, #105, #106 ), #107, .F. );
#81 = ADVANCED_FACE( '', ( #108 ), #109, .F. );
#82 = ADVANCED_FACE( '', ( #110, #111 ), #112, .F. );
#83 = ADVANCED_FACE( '', ( #113, #114 ), #115, .F. );
#84 = ADVANCED_FACE( '', ( #116 ), #117, .F. );
#85 = ADVANCED_FACE( '', ( #118, #119 ), #120, .F. );
#86 = ADVANCED_FACE( '', ( #121, #122 ), #123, .F. );
#88 = FACE_BOUND( '', #124, .T. );
#89 = FACE_BOUND( '', #125, .T. );
#90 = FACE_OUTER_BOUND( '', #126, .T. );
#91 = PLANE( '', #127 );
#92 = FACE_OUTER_BOUND( '', #128, .T. );
#93 = PLANE( '', #129 );
#94 = FACE_BOUND( '', #130, .T. );
#95 = FACE_BOUND( '', #131, .T. );
#96 = FACE_OUTER_BOUND( '', #132, .T. );
#97 = PLANE( '', #133 );
#98 = FACE_OUTER_BOUND( '', #134, .T. );
#99 = PLANE( '', #135 );
#100 = FACE_BOUND( '', #136, .T. );
#101 = FACE_BOUND( '', #137, .T. );
#102 = FACE_OUTER_BOUND( '', #138, .T. );
#103 = PLANE( '', #139 );
#104 = FACE_BOUND( '', #140, .T. );
#105 = FACE_BOUND( '', #141, .T. );
#106 = FACE_OUTER_BOUND( '', #142, .T. );
#107 = PLANE( '', #143 );
#108 = FACE_OUTER_BOUND( '', #144, .T. );
#109 = PLANE( '', #145 );
#110 = FACE_OUTER_BOUND( '', #146, .T. );
#111 = FACE_OUTER_BOUND( '', #147, .T. );
#112 = CYLINDRICAL_SURFACE( '', #148, 3.30000000000000 );
#113 = FACE_OUTER_BOUND( '', #149, .T. );
#114 = FACE_OUTER_BOUND( '', #150, .T. );
#115 = CYLINDRICAL_SURFACE( '', #151, 3.30000000000000 );
#116 = FACE_OUTER_BOUND( '', #152, .T. );
#117 = PLANE( '', #153 );
#118 = FACE_OUTER_BOUND( '', #154, .T. );
#119 = FACE_OUTER_BOUND( '', #155, .T. );
#120 = CYLINDRICAL_SURFACE( '', #156, 3.30000000000000 );
#121 = FACE_OUTER_BOUND( '', #157, .T. );
#122 = FACE_OUTER_BOUND( '', #158, .T. );
#123 = CYLINDRICAL_SURFACE( '', #159, 3.30000000000000 );
#124 = EDGE_LOOP( '', ( #160 ) );
#125 = EDGE_LOOP( '', ( #161 ) );
#126 = EDGE_LOOP( '', ( #162, #163, #164, #165 ) );
#127 = AXIS2_PLACEMENT_3D( '', #166, #167, #168 );
#128 = EDGE_LOOP( '', ( #169, #170, #171, #172, #173, #174 ) );
#129 = AXIS2_PLACEMENT_3D( '', #175, #176, #177 );
#130 = EDGE_LOOP( '', ( #178 ) );
#131 = EDGE_LOOP( '', ( #179 ) );
#132 = EDGE_LOOP( '', ( #180, #181, #182, #183 ) );
#133 = AXIS2_PLACEMENT_3D( '', #184, #185, #186 );
#134 = EDGE_LOOP( '', ( #187, #188, #189, #190 ) );
#135 = AXIS2_PLACEMENT_3D( '', #191, #192, #193 );
#136 = EDGE_LOOP( '', ( #194 ) );
#137 = EDGE_LOOP( '', ( #195 ) );
#138 = EDGE_LOOP( '', ( #196, #197, #198, #199 ) );
#139 = AXIS2_PLACEMENT_3D( '', #200, #201, #202 );
#140 = EDGE_LOOP( '', ( #203 ) );
#141 = EDGE_LOOP( '', ( #204 ) );
#142 = EDGE_LOOP( '', ( #205, #206, #207, #208 ) );
#143 = AXIS2_PLACEMENT_3D( '', #209, #210, #211 );
#144 = EDGE_LOOP( '', ( #212, #213, #214, #215 ) );
#145 = AXIS2_PLACEMENT_3D( '', #216, #217, #218 );
#146 = EDGE_LOOP( '', ( #219 ) );
#147 = EDGE_LOOP( '', ( #220 ) );
#148 = AXIS2_PLACEMENT_3D( '', #221, #222, #223 );
#149 = EDGE_LOOP( '', ( #224 ) );
#150 = EDGE_LOOP( '', ( #225 ) );
#151 = AXIS2_PLACEMENT_3D( '', #226, #227, #228 );
#152 = EDGE_LOOP( '', ( #229, #230, #231, #232, #233, #234 ) );
#153 = AXIS2_PLACEMENT_3D( '', #235, #236, #237 );
#154 = EDGE_LOOP( '', ( #238 ) );
#155 = EDGE_LOOP( '', ( #239 ) );
#156 = AXIS2_PLACEMENT_3D( '', #240, #241, #242 );
#157 = EDGE_LOOP( '', ( #243 ) );
#158 = EDGE_LOOP( '', ( #244 ) );
#159 = AXIS2_PLACEMENT_3D( '', #245, #246, #247 );
#160 = ORIENTED_EDGE( '', *, *, #248, .F. );
#161 = ORIENTED_EDGE( '', *, *, #249, .F. );
#162 = ORIENTED_EDGE( '', *, *, #250, .T. );
#163 = ORIENTED_EDGE( '', *, *, #251, .F. );
#164 = ORIENTED_EDGE( '', *, *, #252, .F. );
#165 = ORIENTED_EDGE( '', *, *, #253, .T. );
#166 = CARTESIAN_POINT( '', ( 4.80000000000000, 4.80000000000001, 22.5000000000000 ) );
#167 = DIRECTION( '', ( -1.00000000000000, -2.87205873506094E-17, 0.000000000000000 ) );
#168 = DIRECTION( '', ( 2.87205873506094E-17, -1.00000000000000, 0.000000000000000 ) );
#169 = ORIENTED_EDGE( '', *, *, #254, .T. );
#170 = ORIENTED_EDGE( '', *, *, #255, .T. );
#171 = ORIENTED_EDGE( '', *, *, #256, .T. );
#172 = ORIENTED_EDGE( '', *, *, #257, .T. );
#173 = ORIENTED_EDGE( '', *, *, #258, .T. );
#174 = ORIENTED_EDGE( '', *, *, #252, .T. );
#175 = CARTESIAN_POINT( '', ( 0.000000000000000, 0.000000000000000, 22.5000000000000 ) );
#176 = DIRECTION( '', ( 0.000000000000000, 0.000000000000000, 1.00000000000000 ) );
#177 = DIRECTION( '', ( 1.00000000000000, 0.000000000000000, -0.000000000000000 ) );
#178 = ORIENTED_EDGE( '', *, *, #259, .T. );
#179 = ORIENTED_EDGE( '', *, *, #260, .T. );
#180 = ORIENTED_EDGE( '', *, *, #261, .T. );
#181 = ORIENTED_EDGE( '', *, *, #253, .F. );
#182 = ORIENTED_EDGE( '', *, *, #258, .F. );
#183 = ORIENTED_EDGE( '', *, *, #262, .T. );
#184 = CARTESIAN_POINT( '', ( 35.0000000000000, 4.80000000000000, 22.5000000000000 ) );
#185 = DIRECTION( '', ( -4.02088222908531E-16, -1.00000000000000, 0.000000000000000 ) );
#186 = DIRECTION( '', ( 1.00000000000000, -4.02088222908531E-16, 0.000000000000000 ) );
#187 = ORIENTED_EDGE( '', *, *, #263, .T. );
#188 = ORIENTED_EDGE( '', *, *, #264, .F. );
#189 = ORIENTED_EDGE( '', *, *, #254, .F. );
#190 = ORIENTED_EDGE( '', *, *, #251, .T. );
#191 = CARTESIAN_POINT( '', ( 4.80000000000000, 35.0000000000000, 22.5000000000000 ) );
#192 = DIRECTION( '', ( 0.000000000000000, -1.00000000000000, 0.000000000000000 ) );
#193 = DIRECTION( '', ( 0.000000000000000, 0.000000000000000, -1.00000000000000 ) );
#194 = ORIENTED_EDGE( '', *, *, #265, .T. );
#195 = ORIENTED_EDGE( '', *, *, #266, .T. );
#196 = ORIENTED_EDGE( '', *, *, #267, .T. );
#197 = ORIENTED_EDGE( '', *, *, #268, .F. );
#198 = ORIENTED_EDGE( '', *, *, #255, .F. );
#199 = ORIENTED_EDGE( '', *, *, #264, .T. );
#200 = CARTESIAN_POINT( '', ( 0.000000000000000, 35.0000000000000, 22.5000000000000 ) );
#201 = DIRECTION( '', ( 1.00000000000000, 0.000000000000000, -0.000000000000000 ) );
#202 = DIRECTION( '', ( -0.000000000000000, 0.000000000000000, -1.00000000000000 ) );
#203 = ORIENTED_EDGE( '', *, *, #269, .F. );
#204 = ORIENTED_EDGE( '', *, *, #270, .F. );
#205 = ORIENTED_EDGE( '', *, *, #271, .T. );
#206 = ORIENTED_EDGE( '', *, *, #272, .F. );
#207 = ORIENTED_EDGE( '', *, *, #256, .F. );
#208 = ORIENTED_EDGE( '', *, *, #268, .T. );
#209 = CARTESIAN_POINT( '', ( 0.000000000000000, 0.000000000000000, 22.5000000000000 ) );
#210 = DIRECTION( '', ( 0.000000000000000, 1.00000000000000, 0.000000000000000 ) );
#211 = DIRECTION( '', ( 0.000000000000000, -0.000000000000000, 1.00000000000000 ) );
#212 = ORIENTED_EDGE( '', *, *, #273, .T. );
#213 = ORIENTED_EDGE( '', *, *, #262, .F. );
#214 = ORIENTED_EDGE( '', *, *, #257, .F. );
#215 = ORIENTED_EDGE( '', *, *, #272, .T. );
#216 = CARTESIAN_POINT( '', ( 35.0000000000000, 0.000000000000000, 22.5000000000000 ) );
#217 = DIRECTION( '', ( -1.00000000000000, 0.000000000000000, 0.000000000000000 ) );
#218 = DIRECTION( '', ( 0.000000000000000, 0.000000000000000, 1.00000000000000 ) );
#219 = ORIENTED_EDGE( '', *, *, #270, .T. );
#220 = ORIENTED_EDGE( '', *, *, #260, .F. );
#221 = CARTESIAN_POINT( '', ( 22.5000000000000, 0.000000000000000, 15.0000000000000 ) );
#222 = DIRECTION( '', ( -0.000000000000000, 1.00000000000000, 0.000000000000000 ) );
#223 = DIRECTION( '', ( 0.000000000000000, 0.000000000000000, -1.00000000000000 ) );
#224 = ORIENTED_EDGE( '', *, *, #269, .T. );
#225 = ORIENTED_EDGE( '', *, *, #259, .F. );
#226 = CARTESIAN_POINT( '', ( 22.5000000000000, 0.000000000000000, -15.0000000000000 ) );
#227 = DIRECTION( '', ( -0.000000000000000, 1.00000000000000, 0.000000000000000 ) );
#228 = DIRECTION( '', ( 0.000000000000000, 0.000000000000000, -1.00000000000000 ) );
#229 = ORIENTED_EDGE( '', *, *, #263, .F. );
#230 = ORIENTED_EDGE( '', *, *, #250, .F. );
#231 = ORIENTED_EDGE( '', *, *, #261, .F. );
#232 = ORIENTED_EDGE( '', *, *, #273, .F. );
#233 = ORIENTED_EDGE( '', *, *, #271, .F. );
#234 = ORIENTED_EDGE( '', *, *, #267, .F. );
#235 = CARTESIAN_POINT( '', ( 0.000000000000000, 0.000000000000000, -22.5000000000000 ) );
#236 = DIRECTION( '', ( 0.000000000000000, 0.000000000000000, 1.00000000000000 ) );
#237 = DIRECTION( '', ( 1.00000000000000, 0.000000000000000, -0.000000000000000 ) );
#238 = ORIENTED_EDGE( '', *, *, #249, .T. );
#239 = ORIENTED_EDGE( '', *, *, #266, .F. );
#240 = CARTESIAN_POINT( '', ( 4.79999999999990, 22.5000000000000, -15.0000000000000 ) );
#241 = DIRECTION( '', ( -1.00000000000000, -0.000000000000000, 0.000000000000000 ) );
#242 = DIRECTION( '', ( -0.000000000000000, 0.000000000000000, -1.00000000000000 ) );
#243 = ORIENTED_EDGE( '', *, *, #248, .T. );
#244 = ORIENTED_EDGE( '', *, *, #265, .F. );
#245 = CARTESIAN_POINT( '', ( 4.79999999999990, 22.5000000000000, 15.0000000000000 ) );
#246 = DIRECTION( '', ( -1.00000000000000, -0.000000000000000, 0.000000000000000 ) );
#247 = DIRECTION( '', ( -0.000000000000000, 0.000000000000000, -1.00000000000000 ) );
#248 = EDGE_CURVE( '', #274, #274, #275, .T. );
#249 = EDGE_CURVE( '', #276, #276, #277, .T. );
#250 = EDGE_CURVE( '', #278, #279, #280, .T. );
#251 = EDGE_CURVE( '', #281, #279, #282, .T. );
#252 = EDGE_CURVE( '', #283, #281, #284, .T. );
#253 = EDGE_CURVE( '', #283, #278, #285, .T. );
#254 = EDGE_CURVE( '', #281, #286, #287, .T. );
#255 = EDGE_CURVE( '', #286, #288, #289, .T. );
#256 = EDGE_CURVE( '', #288, #290, #291, .T. );
#257 = EDGE_CURVE( '', #290, #292, #293, .T. );
#258 = EDGE_CURVE( '', #292, #283, #294, .T. );
#259 = EDGE_CURVE( '', #295, #295, #296, .T. );
#260 = EDGE_CURVE( '', #297, #297, #298, .T. );
#261 = EDGE_CURVE( '', #299, #278, #300, .T. );
#262 = EDGE_CURVE( '', #292, #299, #301, .T. );
#263 = EDGE_CURVE( '', #279, #302, #303, .T. );
#264 = EDGE_CURVE( '', #286, #302, #304, .T. );
#265 = EDGE_CURVE( '', #305, #305, #306, .T. );
#266 = EDGE_CURVE( '', #307, #307, #308, .T. );
#267 = EDGE_CURVE( '', #302, #309, #310, .T. );
#268 = EDGE_CURVE( '', #288, #309, #311, .T. );
#269 = EDGE_CURVE( '', #312, #312, #313, .T. );
#270 = EDGE_CURVE( '', #314, #314, #315, .T. );
#271 = EDGE_CURVE( '', #309, #316, #317, .T. );
#272 = EDGE_CURVE( '', #290, #316, #318, .T. );
#273 = EDGE_CURVE( '', #316, #299, #319, .T. );
#274 = VERTEX_POINT( '', #320 );
#275 = CIRCLE( '', #321, 3.30000000000000 );
#276 = VERTEX_POINT( '', #322 );
#277 = CIRCLE( '', #323, 3.30000000000000 );
#278 = VERTEX_POINT( '', #324 );
#279 = VERTEX_POINT( '', #325 );
#280 = LINE( '', #326, #327 );
#281 = VERTEX_POINT( '', #328 );
#282 = LINE( '', #329, #330 );
#283 = VERTEX_POINT( '', #331 );
#284 = LINE( '', #332, #333 );
#285 = LINE( '', #334, #335 );
#286 = VERTEX_POINT( '', #336 );
#287 = LINE( '', #337, #338 );
#288 = VERTEX_POINT( '', #339 );
#289 = LINE( '', #340, #341 );
#290 = VERTEX_POINT( '', #342 );
#291 = LINE( '', #343, #344 );
#292 = VERTEX_POINT( '', #345 );
#293 = LINE( '', #346, #347 );
#294 = LINE( '', #348, #349 );
#295 = VERTEX_POINT( '', #350 );
#296 = CIRCLE( '', #351, 3.30000000000000 );
#297 = VERTEX_POINT( '', #352 );
#298 = CIRCLE( '', #353, 3.30000000000000 );
#299 = VERTEX_POINT( '', #354 );
#300 = LINE( '', #355, #356 );
#301 = LINE( '', #357, #358 );
#302 = VERTEX_POINT( '', #359 );
#303 = LINE( '', #360, #361 );
#304 = LINE( '', #362, #363 );
#305 = VERTEX_POINT( '', #364 );
#306 = CIRCLE( '', #365, 3.30000000000000 );
#307 = VERTEX_POINT( '', #366 );
#308 = CIRCLE( '', #367, 3.30000000000000 );
#309 = VERTEX_POINT( '', #368 );
#310 = LINE( '', #369, #370 );
#311 = LINE( '', #371, #372 );
#312 = VERTEX_POINT( '', #373 );
#313 = CIRCLE( '', #374, 3.30000000000000 );
#314 = VERTEX_POINT( '', #375 );
#315 = CIRCLE( '', #376, 3.30000000000000 );
#316 = VERTEX_POINT( '', #377 );
#317 = LINE( '', #378, #379 );
#318 = LINE( '', #380, #381 );
#319 = LINE( '', #382, #383 );
#320 = CARTESIAN_POINT( '', ( 4.80000000000000, 22.5000000000000, 11.6999999999999 ) );
#321 = AXIS2_PLACEMENT_3D( '', #384, #385, #386 );
#322 = CARTESIAN_POINT( '', ( 4.80000000000000, 22.5000000000000, -18.3000000000001 ) );
#323 = AXIS2_PLACEMENT_3D( '', #387, #388, #389 );
#324 = CARTESIAN_POINT( '', ( 4.80000000000000, 4.80000000000001, -22.5000000000000 ) );
#325 = CARTESIAN_POINT( '', ( 4.80000000000000, 35.0000000000000, -22.5000000000000 ) );
#326 = CARTESIAN_POINT( '', ( 4.80000000000000, 4.80000000000001, -22.5000000000000 ) );
#327 = VECTOR( '', #390, 1000.00000000000 );
#328 = CARTESIAN_POINT( '', ( 4.80000000000000, 35.0000000000000, 22.5000000000000 ) );
#329 = CARTESIAN_POINT( '', ( 4.80000000000000, 35.0000000000000, 22.5000000000000 ) );
#330 = VECTOR( '', #391, 1000.00000000000 );
#331 = CARTESIAN_POINT( '', ( 4.80000000000000, 4.80000000000001, 22.5000000000000 ) );
#332 = CARTESIAN_POINT( '', ( 4.80000000000000, 4.80000000000001, 22.5000000000000 ) );
#333 = VECTOR( '', #392, 1000.00000000000 );
#334 = CARTESIAN_POINT( '', ( 4.80000000000000, 4.80000000000001, 22.5000000000000 ) );
#335 = VECTOR( '', #393, 1000.00000000000 );
#336 = CARTESIAN_POINT( '', ( 0.000000000000000, 35.0000000000000, 22.5000000000000 ) );
#337 = CARTESIAN_POINT( '', ( 4.80000000000000, 35.0000000000000, 22.5000000000000 ) );
#338 = VECTOR( '', #394, 1000.00000000000 );
#339 = CARTESIAN_POINT( '', ( 0.000000000000000, 0.000000000000000, 22.5000000000000 ) );
#340 = CARTESIAN_POINT( '', ( 0.000000000000000, 35.0000000000000, 22.5000000000000 ) );
#341 = VECTOR( '', #395, 1000.00000000000 );
#342 = CARTESIAN_POINT( '', ( 35.0000000000000, 0.000000000000000, 22.5000000000000 ) );
#343 = CARTESIAN_POINT( '', ( 0.000000000000000, 0.000000000000000, 22.5000000000000 ) );
#344 = VECTOR( '', #396, 1000.00000000000 );
#345 = CARTESIAN_POINT( '', ( 35.0000000000000, 4.80000000000000, 22.5000000000000 ) );
#346 = CARTESIAN_POINT( '', ( 35.0000000000000, 0.000000000000000, 22.5000000000000 ) );
#347 = VECTOR( '', #397, 1000.00000000000 );
#348 = CARTESIAN_POINT( '', ( 35.0000000000000, 4.80000000000000, 22.5000000000000 ) );
#349 = VECTOR( '', #398, 1000.00000000000 );
#350 = CARTESIAN_POINT( '', ( 22.5000000000000, 4.80000000000001, -18.3000000000000 ) );
#351 = AXIS2_PLACEMENT_3D( '', #399, #400, #401 );
#352 = CARTESIAN_POINT( '', ( 22.5000000000000, 4.80000000000001, 11.7000000000000 ) );
#353 = AXIS2_PLACEMENT_3D( '', #402, #403, #404 );
#354 = CARTESIAN_POINT( '', ( 35.0000000000000, 4.80000000000000, -22.5000000000000 ) );
#355 = CARTESIAN_POINT( '', ( 35.0000000000000, 4.80000000000000, -22.5000000000000 ) );
#356 = VECTOR( '', #405, 1000.00000000000 );
#357 = CARTESIAN_POINT( '', ( 35.0000000000000, 4.80000000000000, 22.5000000000000 ) );
#358 = VECTOR( '', #406, 1000.00000000000 );
#359 = CARTESIAN_POINT( '', ( 0.000000000000000, 35.0000000000000, -22.5000000000000 ) );
#360 = CARTESIAN_POINT( '', ( 4.80000000000000, 35.0000000000000, -22.5000000000000 ) );
#361 = VECTOR( '', #407, 1000.00000000000 );
#362 = CARTESIAN_POINT( '', ( 0.000000000000000, 35.0000000000000, 22.5000000000000 ) );
#363 = VECTOR( '', #408, 1000.00000000000 );
#364 = CARTESIAN_POINT( '', ( 5.63785129692462E-14, 22.5000000000000, 11.6999999999999 ) );
#365 = AXIS2_PLACEMENT_3D( '', #409, #410, #411 );
#366 = CARTESIAN_POINT( '', ( 5.63785129692462E-14, 22.5000000000000, -18.3000000000001 ) );
#367 = AXIS2_PLACEMENT_3D( '', #412, #413, #414 );
#368 = CARTESIAN_POINT( '', ( 0.000000000000000, 0.000000000000000, -22.5000000000000 ) );
#369 = CARTESIAN_POINT( '', ( 0.000000000000000, 35.0000000000000, -22.5000000000000 ) );
#370 = VECTOR( '', #415, 1000.00000000000 );
#371 = CARTESIAN_POINT( '', ( 0.000000000000000, 0.000000000000000, 22.5000000000000 ) );
#372 = VECTOR( '', #416, 1000.00000000000 );
#373 = CARTESIAN_POINT( '', ( 22.5000000000000, 0.000000000000000, -18.3000000000000 ) );
#374 = AXIS2_PLACEMENT_3D( '', #417, #418, #419 );
#375 = CARTESIAN_POINT( '', ( 22.5000000000000, 0.000000000000000, 11.7000000000000 ) );
#376 = AXIS2_PLACEMENT_3D( '', #420, #421, #422 );
#377 = CARTESIAN_POINT( '', ( 35.0000000000000, 0.000000000000000, -22.5000000000000 ) );
#378 = CARTESIAN_POINT( '', ( 0.000000000000000, 0.000000000000000, -22.5000000000000 ) );
#379 = VECTOR( '', #423, 1000.00000000000 );
#380 = CARTESIAN_POINT( '', ( 35.0000000000000, 0.000000000000000, 22.5000000000000 ) );
#381 = VECTOR( '', #424, 1000.00000000000 );
#382 = CARTESIAN_POINT( '', ( 35.0000000000000, 0.000000000000000, -22.5000000000000 ) );
#383 = VECTOR( '', #425, 1000.00000000000 );
#384 = CARTESIAN_POINT( '', ( 4.80000000000000, 22.5000000000000, 15.0000000000000 ) );
#385 = DIRECTION( '', ( 1.00000000000000, 0.000000000000000, -0.000000000000000 ) );
#386 = DIRECTION( '', ( -0.000000000000000, 0.000000000000000, -1.00000000000000 ) );
#387 = CARTESIAN_POINT( '', ( 4.80000000000000, 22.5000000000000, -15.0000000000000 ) );
#388 = DIRECTION( '', ( 1.00000000000000, 0.000000000000000, -0.000000000000000 ) );
#389 = DIRECTION( '', ( -0.000000000000000, 0.000000000000000, -1.00000000000000 ) );
#390 = DIRECTION( '', ( -2.87205873506094E-17, 1.00000000000000, 0.000000000000000 ) );
#391 = DIRECTION( '', ( -0.000000000000000, -0.000000000000000, -1.00000000000000 ) );
#392 = DIRECTION( '', ( -2.87205873506094E-17, 1.00000000000000, 0.000000000000000 ) );
#393 = DIRECTION( '', ( -0.000000000000000, -0.000000000000000, -1.00000000000000 ) );
#394 = DIRECTION( '', ( -1.00000000000000, 0.000000000000000, 0.000000000000000 ) );
#395 = DIRECTION( '', ( 0.000000000000000, -1.00000000000000, 0.000000000000000 ) );
#396 = DIRECTION( '', ( 1.00000000000000, 0.000000000000000, 0.000000000000000 ) );
#397 = DIRECTION( '', ( 0.000000000000000, 1.00000000000000, 0.000000000000000 ) );
#398 = DIRECTION( '', ( -1.00000000000000, 4.02088222908531E-16, 0.000000000000000 ) );
#399 = CARTESIAN_POINT( '', ( 22.5000000000000, 4.80000000000001, -15.0000000000000 ) );
#400 = DIRECTION( '', ( 0.000000000000000, -1.00000000000000, -0.000000000000000 ) );
#401 = DIRECTION( '', ( 0.000000000000000, 0.000000000000000, -1.00000000000000 ) );
#402 = CARTESIAN_POINT( '', ( 22.5000000000000, 4.80000000000001, 15.0000000000000 ) );
#403 = DIRECTION( '', ( 0.000000000000000, -1.00000000000000, -0.000000000000000 ) );
#404 = DIRECTION( '', ( 0.000000000000000, 0.000000000000000, -1.00000000000000 ) );
#405 = DIRECTION( '', ( -1.00000000000000, 4.02088222908531E-16, 0.000000000000000 ) );
#406 = DIRECTION( '', ( -0.000000000000000, -0.000000000000000, -1.00000000000000 ) );
#407 = DIRECTION( '', ( -1.00000000000000, 0.000000000000000, 0.000000000000000 ) );
#408 = DIRECTION( '', ( -0.000000000000000, -0.000000000000000, -1.00000000000000 ) );
#409 = CARTESIAN_POINT( '', ( 5.63785129692462E-14, 22.5000000000000, 15.0000000000000 ) );
#410 = DIRECTION( '', ( 1.00000000000000, 0.000000000000000, -0.000000000000000 ) );
#411 = DIRECTION( '', ( -0.000000000000000, 0.000000000000000, -1.00000000000000 ) );
#412 = CARTESIAN_POINT( '', ( 5.63785129692462E-14, 22.5000000000000, -15.0000000000000 ) );
#413 = DIRECTION( '', ( 1.00000000000000, 0.000000000000000, -0.000000000000000 ) );
#414 = DIRECTION( '', ( -0.000000000000000, 0.000000000000000, -1.00000000000000 ) );
#415 = DIRECTION( '', ( 0.000000000000000, -1.00000000000000, 0.000000000000000 ) );
#416 = DIRECTION( '', ( -0.000000000000000, -0.000000000000000, -1.00000000000000 ) );
#417 = CARTESIAN_POINT( '', ( 22.5000000000000, 0.000000000000000, -15.0000000000000 ) );
#418 = DIRECTION( '', ( 0.000000000000000, -1.00000000000000, -0.000000000000000 ) );
#419 = DIRECTION( '', ( 0.000000000000000, 0.000000000000000, -1.00000000000000 ) );
#420 = CARTESIAN_POINT( '', ( 22.5000000000000, 0.000000000000000, 15.0000000000000 ) );
#421 = DIRECTION( '', ( 0.000000000000000, -1.00000000000000, -0.000000000000000 ) );
#422 = DIRECTION( '', ( 0.000000000000000, 0.000000000000000, -1.00000000000000 ) );
#423 = DIRECTION( '', ( 1.00000000000000, 0.000000000000000, 0.000000000000000 ) );
#424 = DIRECTION( '', ( -0.000000000000000, -0.000000000000000, -1.00000000000000 ) );
#425 = DIRECTION( '', ( 0.000000000000000, 1.00000000000000, 0.000000000000000 ) );
ENDSEC;
END-ISO-10303-21;
