ISO-10303-21;
HEADER;
/* Generated by software containing ST-Developer
 * from STEP Tools, Inc. (www.steptools.com) 
 */

FILE_DESCRIPTION(
/* description */ (''),
/* implementation_level */ '2;1');

FILE_NAME(
/* name */ 'Z:\\14-ALMACEN-3D\\WEB-2020\\grandes-cargas\\vdl\\vdl100ni
t.stp',
/* time_stamp */ '2020-07-17T10:17:37+02:00',
/* author */ ('enginyeria'),
/* organization */ (''),
/* preprocessor_version */ 'ST-DEVELOPER v17',
/* originating_system */ 'Autodesk Inventor 2019',
/* authorisation */ '');

FILE_SCHEMA (('CONFIG_CONTROL_DESIGN'));
ENDSEC;

DATA;
#10=MECHANICAL_DESIGN_GEOMETRIC_PRESENTATION_REPRESENTATION('',(#197,#198,
#199,#200,#201,#202,#203,#204,#205,#206,#207,#208,#209),#444);
#11=SHAPE_REPRESENTATION_RELATIONSHIP('SRR','None',#451,#12);
#12=ADVANCED_BREP_SHAPE_REPRESENTATION('',(#13),#443);
#13=MANIFOLD_SOLID_BREP('S\X\F3lido1',#222);
#14=TOROIDAL_SURFACE('',#274,50.2000000000001,0.3);
#15=(
BOUNDED_SURFACE()
B_SPLINE_SURFACE(2,2,((#407,#408,#409,#410,#411,#412,#413,#414,#415),(#416,
#417,#418,#419,#420,#421,#422,#423,#424),(#425,#426,#427,#428,#429,#430,
#431,#432,#433)),.UNSPECIFIED.,.F.,.T.,.F.)
B_SPLINE_SURFACE_WITH_KNOTS((3,3),(3,2,2,2,3),(-0.648999710183615,-0.636371765222976),
(-3.14159265358979,-1.5707963267949,0.,1.5707963267949,3.14159265358979),
 .UNSPECIFIED.)
GEOMETRIC_REPRESENTATION_ITEM()
RATIONAL_B_SPLINE_SURFACE(((1.,0.707106781186548,1.,0.707106781186548,1.,
0.707106781186548,1.,0.707106781186548,1.),(0.99998006694198,0.707092686386052,
0.99998006694198,0.707092686386052,0.99998006694198,0.707092686386052,0.99998006694198,
0.707092686386052,0.99998006694198),(1.,0.707106781186548,1.,0.707106781186548,
1.,0.707106781186548,1.,0.707106781186548,1.)))
REPRESENTATION_ITEM('')
SURFACE()
);
#16=CYLINDRICAL_SURFACE('',#248,23.3);
#17=CYLINDRICAL_SURFACE('',#254,5.7225);
#18=CYLINDRICAL_SURFACE('',#264,35.5);
#19=FACE_BOUND('',#39,.T.);
#20=FACE_BOUND('',#46,.T.);
#21=PLANE('',#246);
#22=PLANE('',#257);
#23=PLANE('',#258);
#24=PLANE('',#261);
#25=FACE_OUTER_BOUND('',#37,.T.);
#26=FACE_OUTER_BOUND('',#38,.T.);
#27=FACE_OUTER_BOUND('',#40,.T.);
#28=FACE_OUTER_BOUND('',#41,.T.);
#29=FACE_OUTER_BOUND('',#42,.T.);
#30=FACE_OUTER_BOUND('',#43,.T.);
#31=FACE_OUTER_BOUND('',#44,.T.);
#32=FACE_OUTER_BOUND('',#45,.T.);
#33=FACE_OUTER_BOUND('',#47,.T.);
#34=FACE_OUTER_BOUND('',#48,.T.);
#35=FACE_OUTER_BOUND('',#49,.T.);
#36=FACE_OUTER_BOUND('',#50,.T.);
#37=EDGE_LOOP('',(#136,#137,#138,#139,#140));
#38=EDGE_LOOP('',(#141));
#39=EDGE_LOOP('',(#142));
#40=EDGE_LOOP('',(#143,#144,#145,#146,#147,#148));
#41=EDGE_LOOP('',(#149,#150,#151,#152,#153));
#42=EDGE_LOOP('',(#154,#155,#156,#157,#158,#159));
#43=EDGE_LOOP('',(#160,#161));
#44=EDGE_LOOP('',(#162,#163));
#45=EDGE_LOOP('',(#164,#165));
#46=EDGE_LOOP('',(#166,#167));
#47=EDGE_LOOP('',(#168,#169,#170,#171,#172,#173));
#48=EDGE_LOOP('',(#174,#175,#176,#177,#178,#179,#180));
#49=EDGE_LOOP('',(#181,#182,#183,#184,#185,#186,#187));
#50=EDGE_LOOP('',(#188,#189,#190,#191,#192,#193));
#51=LINE('',#359,#57);
#52=LINE('',#369,#58);
#53=LINE('',#375,#59);
#54=LINE('',#380,#60);
#55=LINE('',#398,#61);
#56=LINE('',#406,#62);
#57=VECTOR('',#284,23.05);
#58=VECTOR('',#297,23.3);
#59=VECTOR('',#304,6.2225);
#60=VECTOR('',#309,5.7225);
#61=VECTOR('',#332,35.5);
#62=VECTOR('',#341,42.8684970254406);
#63=CIRCLE('',#243,23.3);
#64=CIRCLE('',#244,23.3);
#65=CIRCLE('',#245,22.8);
#66=CIRCLE('',#247,6.7225);
#67=CIRCLE('',#249,23.3);
#68=CIRCLE('',#250,23.3);
#69=CIRCLE('',#252,5.7225);
#70=CIRCLE('',#253,5.7225);
#71=CIRCLE('',#255,5.7225);
#72=CIRCLE('',#256,5.7225);
#73=CIRCLE('',#259,50.2000000000001);
#74=CIRCLE('',#260,50.2000000000001);
#75=CIRCLE('',#262,35.5);
#76=CIRCLE('',#263,35.5);
#77=CIRCLE('',#265,35.5);
#78=CIRCLE('',#266,35.5);
#79=CIRCLE('',#268,50.2369940508812);
#80=CIRCLE('',#269,50.2369940508812);
#81=CIRCLE('',#270,50.2369940508812);
#82=CIRCLE('',#271,32.2435840591806);
#83=CIRCLE('',#272,50.4810286747566);
#84=CIRCLE('',#273,50.4810286747566);
#85=CIRCLE('',#275,0.3);
#86=VERTEX_POINT('',#354);
#87=VERTEX_POINT('',#355);
#88=VERTEX_POINT('',#358);
#89=VERTEX_POINT('',#362);
#90=VERTEX_POINT('',#365);
#91=VERTEX_POINT('',#366);
#92=VERTEX_POINT('',#371);
#93=VERTEX_POINT('',#372);
#94=VERTEX_POINT('',#377);
#95=VERTEX_POINT('',#378);
#96=VERTEX_POINT('',#384);
#97=VERTEX_POINT('',#385);
#98=VERTEX_POINT('',#389);
#99=VERTEX_POINT('',#390);
#100=VERTEX_POINT('',#394);
#101=VERTEX_POINT('',#395);
#102=VERTEX_POINT('',#400);
#103=VERTEX_POINT('',#401);
#104=VERTEX_POINT('',#403);
#105=VERTEX_POINT('',#434);
#106=VERTEX_POINT('',#436);
#107=EDGE_CURVE('',#86,#87,#63,.T.);
#108=EDGE_CURVE('',#87,#86,#64,.T.);
#109=EDGE_CURVE('',#86,#88,#51,.T.);
#110=EDGE_CURVE('',#88,#88,#65,.T.);
#111=EDGE_CURVE('',#89,#89,#66,.T.);
#112=EDGE_CURVE('',#90,#91,#67,.T.);
#113=EDGE_CURVE('',#91,#90,#68,.T.);
#114=EDGE_CURVE('',#91,#87,#52,.T.);
#115=EDGE_CURVE('',#92,#93,#69,.T.);
#116=EDGE_CURVE('',#93,#92,#70,.T.);
#117=EDGE_CURVE('',#92,#89,#53,.T.);
#118=EDGE_CURVE('',#94,#95,#71,.T.);
#119=EDGE_CURVE('',#95,#93,#54,.T.);
#120=EDGE_CURVE('',#95,#94,#72,.T.);
#121=EDGE_CURVE('',#96,#97,#73,.T.);
#122=EDGE_CURVE('',#97,#96,#74,.T.);
#123=EDGE_CURVE('',#98,#99,#75,.T.);
#124=EDGE_CURVE('',#99,#98,#76,.T.);
#125=EDGE_CURVE('',#100,#101,#77,.T.);
#126=EDGE_CURVE('',#101,#100,#78,.T.);
#127=EDGE_CURVE('',#101,#99,#55,.T.);
#128=EDGE_CURVE('',#102,#103,#79,.T.);
#129=EDGE_CURVE('',#104,#102,#80,.T.);
#130=EDGE_CURVE('',#103,#104,#81,.T.);
#131=EDGE_CURVE('',#103,#101,#56,.T.);
#132=EDGE_CURVE('',#104,#105,#82,.T.);
#133=EDGE_CURVE('',#106,#105,#83,.T.);
#134=EDGE_CURVE('',#105,#106,#84,.T.);
#135=EDGE_CURVE('',#97,#105,#85,.T.);
#136=ORIENTED_EDGE('',*,*,#107,.T.);
#137=ORIENTED_EDGE('',*,*,#108,.T.);
#138=ORIENTED_EDGE('',*,*,#109,.T.);
#139=ORIENTED_EDGE('',*,*,#110,.T.);
#140=ORIENTED_EDGE('',*,*,#109,.F.);
#141=ORIENTED_EDGE('',*,*,#110,.F.);
#142=ORIENTED_EDGE('',*,*,#111,.F.);
#143=ORIENTED_EDGE('',*,*,#112,.F.);
#144=ORIENTED_EDGE('',*,*,#113,.F.);
#145=ORIENTED_EDGE('',*,*,#114,.T.);
#146=ORIENTED_EDGE('',*,*,#107,.F.);
#147=ORIENTED_EDGE('',*,*,#108,.F.);
#148=ORIENTED_EDGE('',*,*,#114,.F.);
#149=ORIENTED_EDGE('',*,*,#115,.T.);
#150=ORIENTED_EDGE('',*,*,#116,.T.);
#151=ORIENTED_EDGE('',*,*,#117,.T.);
#152=ORIENTED_EDGE('',*,*,#111,.T.);
#153=ORIENTED_EDGE('',*,*,#117,.F.);
#154=ORIENTED_EDGE('',*,*,#118,.T.);
#155=ORIENTED_EDGE('',*,*,#119,.T.);
#156=ORIENTED_EDGE('',*,*,#115,.F.);
#157=ORIENTED_EDGE('',*,*,#116,.F.);
#158=ORIENTED_EDGE('',*,*,#119,.F.);
#159=ORIENTED_EDGE('',*,*,#120,.T.);
#160=ORIENTED_EDGE('',*,*,#118,.F.);
#161=ORIENTED_EDGE('',*,*,#120,.F.);
#162=ORIENTED_EDGE('',*,*,#121,.T.);
#163=ORIENTED_EDGE('',*,*,#122,.T.);
#164=ORIENTED_EDGE('',*,*,#123,.F.);
#165=ORIENTED_EDGE('',*,*,#124,.F.);
#166=ORIENTED_EDGE('',*,*,#112,.T.);
#167=ORIENTED_EDGE('',*,*,#113,.T.);
#168=ORIENTED_EDGE('',*,*,#125,.F.);
#169=ORIENTED_EDGE('',*,*,#126,.F.);
#170=ORIENTED_EDGE('',*,*,#127,.T.);
#171=ORIENTED_EDGE('',*,*,#124,.T.);
#172=ORIENTED_EDGE('',*,*,#123,.T.);
#173=ORIENTED_EDGE('',*,*,#127,.F.);
#174=ORIENTED_EDGE('',*,*,#128,.F.);
#175=ORIENTED_EDGE('',*,*,#129,.F.);
#176=ORIENTED_EDGE('',*,*,#130,.F.);
#177=ORIENTED_EDGE('',*,*,#131,.T.);
#178=ORIENTED_EDGE('',*,*,#126,.T.);
#179=ORIENTED_EDGE('',*,*,#125,.T.);
#180=ORIENTED_EDGE('',*,*,#131,.F.);
#181=ORIENTED_EDGE('',*,*,#128,.T.);
#182=ORIENTED_EDGE('',*,*,#130,.T.);
#183=ORIENTED_EDGE('',*,*,#132,.T.);
#184=ORIENTED_EDGE('',*,*,#133,.F.);
#185=ORIENTED_EDGE('',*,*,#134,.F.);
#186=ORIENTED_EDGE('',*,*,#132,.F.);
#187=ORIENTED_EDGE('',*,*,#129,.T.);
#188=ORIENTED_EDGE('',*,*,#121,.F.);
#189=ORIENTED_EDGE('',*,*,#122,.F.);
#190=ORIENTED_EDGE('',*,*,#135,.T.);
#191=ORIENTED_EDGE('',*,*,#134,.T.);
#192=ORIENTED_EDGE('',*,*,#133,.T.);
#193=ORIENTED_EDGE('',*,*,#135,.F.);
#194=CONICAL_SURFACE('',#242,23.05,0.785398163397435);
#195=CONICAL_SURFACE('',#251,6.2225,0.785398163397438);
#196=CONICAL_SURFACE('',#267,42.8684970254406,0.742184152428814);
#197=STYLED_ITEM('',(#461),#210);
#198=STYLED_ITEM('',(#461),#211);
#199=STYLED_ITEM('',(#461),#212);
#200=STYLED_ITEM('',(#461),#213);
#201=STYLED_ITEM('',(#461),#214);
#202=STYLED_ITEM('',(#461),#215);
#203=STYLED_ITEM('',(#462),#216);
#204=STYLED_ITEM('',(#462),#217);
#205=STYLED_ITEM('',(#462),#218);
#206=STYLED_ITEM('',(#462),#219);
#207=STYLED_ITEM('',(#462),#220);
#208=STYLED_ITEM('',(#462),#221);
#209=STYLED_ITEM('',(#460),#13);
#210=ADVANCED_FACE('',(#25),#194,.T.);
#211=ADVANCED_FACE('',(#26,#19),#21,.T.);
#212=ADVANCED_FACE('',(#27),#16,.T.);
#213=ADVANCED_FACE('',(#28),#195,.F.);
#214=ADVANCED_FACE('',(#29),#17,.F.);
#215=ADVANCED_FACE('',(#30),#22,.F.);
#216=ADVANCED_FACE('',(#31),#23,.T.);
#217=ADVANCED_FACE('',(#32,#20),#24,.T.);
#218=ADVANCED_FACE('',(#33),#18,.T.);
#219=ADVANCED_FACE('',(#34),#196,.T.);
#220=ADVANCED_FACE('',(#35),#15,.F.);
#221=ADVANCED_FACE('',(#36),#14,.T.);
#222=CLOSED_SHELL('',(#210,#211,#212,#213,#214,#215,#216,#217,#218,#219,
#220,#221));
#223=DERIVED_UNIT_ELEMENT(#225,1.);
#224=DERIVED_UNIT_ELEMENT(#446,3.);
#225=(
MASS_UNIT()
NAMED_UNIT(*)
SI_UNIT($,.GRAM.)
);
#226=DERIVED_UNIT((#223,#224));
#227=MEASURE_REPRESENTATION_ITEM('density measure',
POSITIVE_RATIO_MEASURE(1.),#226);
#228=PROPERTY_DEFINITION_REPRESENTATION(#233,#230);
#229=PROPERTY_DEFINITION_REPRESENTATION(#234,#231);
#230=REPRESENTATION('material name',(#232),#443);
#231=REPRESENTATION('density',(#227),#443);
#232=DESCRIPTIVE_REPRESENTATION_ITEM('Gen\X\E9rico','Gen\X\E9rico');
#233=PROPERTY_DEFINITION('material property','material name',#453);
#234=PROPERTY_DEFINITION('material property','density of part',#453);
#235=DATE_TIME_ROLE('creation_date');
#236=CC_DESIGN_DATE_AND_TIME_ASSIGNMENT(#237,#235,(#453));
#237=DATE_AND_TIME(#238,#239);
#238=CALENDAR_DATE(2020,3,4);
#239=LOCAL_TIME(12,59,13.,#240);
#240=COORDINATED_UNIVERSAL_TIME_OFFSET(0,0,.BEHIND.);
#241=AXIS2_PLACEMENT_3D('placement',#352,#276,#277);
#242=AXIS2_PLACEMENT_3D('',#353,#278,#279);
#243=AXIS2_PLACEMENT_3D('',#356,#280,#281);
#244=AXIS2_PLACEMENT_3D('',#357,#282,#283);
#245=AXIS2_PLACEMENT_3D('',#360,#285,#286);
#246=AXIS2_PLACEMENT_3D('',#361,#287,#288);
#247=AXIS2_PLACEMENT_3D('',#363,#289,#290);
#248=AXIS2_PLACEMENT_3D('',#364,#291,#292);
#249=AXIS2_PLACEMENT_3D('',#367,#293,#294);
#250=AXIS2_PLACEMENT_3D('',#368,#295,#296);
#251=AXIS2_PLACEMENT_3D('',#370,#298,#299);
#252=AXIS2_PLACEMENT_3D('',#373,#300,#301);
#253=AXIS2_PLACEMENT_3D('',#374,#302,#303);
#254=AXIS2_PLACEMENT_3D('',#376,#305,#306);
#255=AXIS2_PLACEMENT_3D('',#379,#307,#308);
#256=AXIS2_PLACEMENT_3D('',#381,#310,#311);
#257=AXIS2_PLACEMENT_3D('',#382,#312,#313);
#258=AXIS2_PLACEMENT_3D('',#383,#314,#315);
#259=AXIS2_PLACEMENT_3D('',#386,#316,#317);
#260=AXIS2_PLACEMENT_3D('',#387,#318,#319);
#261=AXIS2_PLACEMENT_3D('',#388,#320,#321);
#262=AXIS2_PLACEMENT_3D('',#391,#322,#323);
#263=AXIS2_PLACEMENT_3D('',#392,#324,#325);
#264=AXIS2_PLACEMENT_3D('',#393,#326,#327);
#265=AXIS2_PLACEMENT_3D('',#396,#328,#329);
#266=AXIS2_PLACEMENT_3D('',#397,#330,#331);
#267=AXIS2_PLACEMENT_3D('',#399,#333,#334);
#268=AXIS2_PLACEMENT_3D('',#402,#335,#336);
#269=AXIS2_PLACEMENT_3D('',#404,#337,#338);
#270=AXIS2_PLACEMENT_3D('',#405,#339,#340);
#271=AXIS2_PLACEMENT_3D('',#435,#342,#343);
#272=AXIS2_PLACEMENT_3D('',#437,#344,#345);
#273=AXIS2_PLACEMENT_3D('',#438,#346,#347);
#274=AXIS2_PLACEMENT_3D('',#439,#348,#349);
#275=AXIS2_PLACEMENT_3D('',#440,#350,#351);
#276=DIRECTION('axis',(0.,0.,1.));
#277=DIRECTION('refdir',(1.,0.,0.));
#278=DIRECTION('center_axis',(9.80058945875995E-16,-1.,0.));
#279=DIRECTION('ref_axis',(1.,9.80058945876001E-16,0.));
#280=DIRECTION('center_axis',(-9.80058945876001E-16,1.,0.));
#281=DIRECTION('ref_axis',(1.,9.80058945876001E-16,0.));
#282=DIRECTION('center_axis',(-9.80058945876001E-16,1.,0.));
#283=DIRECTION('ref_axis',(1.,9.80058945876001E-16,0.));
#284=DIRECTION('',(0.707106781186537,0.707106781186558,8.65956056235481E-17));
#285=DIRECTION('center_axis',(9.80058945876001E-16,-1.,0.));
#286=DIRECTION('ref_axis',(1.,9.80058945876001E-16,0.));
#287=DIRECTION('center_axis',(-9.80058945876001E-16,1.,0.));
#288=DIRECTION('ref_axis',(0.,0.,1.));
#289=DIRECTION('center_axis',(-9.80058945876001E-16,1.,0.));
#290=DIRECTION('ref_axis',(-1.,-9.80058945876001E-16,0.));
#291=DIRECTION('center_axis',(9.80058945876001E-16,-1.,0.));
#292=DIRECTION('ref_axis',(-1.,-9.80058945876001E-16,0.));
#293=DIRECTION('center_axis',(9.80058945876001E-16,-1.,0.));
#294=DIRECTION('ref_axis',(-1.,-9.80058945876001E-16,0.));
#295=DIRECTION('center_axis',(9.80058945876001E-16,-1.,0.));
#296=DIRECTION('ref_axis',(-1.,-9.80058945876001E-16,0.));
#297=DIRECTION('',(-9.80058945876001E-16,1.,0.));
#298=DIRECTION('center_axis',(-9.80058945876001E-16,1.,0.));
#299=DIRECTION('ref_axis',(-1.,-9.80058945876001E-16,0.));
#300=DIRECTION('center_axis',(9.80058945876001E-16,-1.,0.));
#301=DIRECTION('ref_axis',(-1.,-9.80058945876001E-16,0.));
#302=DIRECTION('center_axis',(9.80058945876001E-16,-1.,0.));
#303=DIRECTION('ref_axis',(-1.,-9.80058945876001E-16,0.));
#304=DIRECTION('',(0.707106781186539,0.707106781186556,-8.65956056235484E-17));
#305=DIRECTION('center_axis',(0.,1.,-3.44509284839767E-16));
#306=DIRECTION('ref_axis',(1.,0.,0.));
#307=DIRECTION('center_axis',(0.,-1.,3.44509284839767E-16));
#308=DIRECTION('ref_axis',(1.,0.,0.));
#309=DIRECTION('',(0.,1.,-3.44509284839767E-16));
#310=DIRECTION('center_axis',(0.,-1.,3.44509284839767E-16));
#311=DIRECTION('ref_axis',(1.,0.,0.));
#312=DIRECTION('center_axis',(0.,-1.,3.44509284839767E-16));
#313=DIRECTION('ref_axis',(-1.,0.,0.));
#314=DIRECTION('center_axis',(9.80058945876001E-16,-1.,0.));
#315=DIRECTION('ref_axis',(0.,0.,-1.));
#316=DIRECTION('center_axis',(9.80058945876001E-16,-1.,0.));
#317=DIRECTION('ref_axis',(-1.,-9.80058945876001E-16,0.));
#318=DIRECTION('center_axis',(9.80058945876001E-16,-1.,0.));
#319=DIRECTION('ref_axis',(-1.,-9.80058945876001E-16,0.));
#320=DIRECTION('center_axis',(-9.80058945876001E-16,1.,0.));
#321=DIRECTION('ref_axis',(0.,0.,1.));
#322=DIRECTION('center_axis',(9.80058945876001E-16,-1.,0.));
#323=DIRECTION('ref_axis',(-1.,-9.80058945876001E-16,0.));
#324=DIRECTION('center_axis',(9.80058945876001E-16,-1.,0.));
#325=DIRECTION('ref_axis',(-1.,-9.80058945876001E-16,0.));
#326=DIRECTION('center_axis',(9.80058945876001E-16,-1.,0.));
#327=DIRECTION('ref_axis',(-1.,-9.80058945876001E-16,0.));
#328=DIRECTION('center_axis',(9.80058945876001E-16,-1.,0.));
#329=DIRECTION('ref_axis',(-1.,-9.80058945876001E-16,0.));
#330=DIRECTION('center_axis',(9.80058945876001E-16,-1.,0.));
#331=DIRECTION('ref_axis',(-1.,-9.80058945876001E-16,0.));
#332=DIRECTION('',(-9.80058945876001E-16,1.,0.));
#333=DIRECTION('center_axis',(9.80058945876001E-16,-1.,0.));
#334=DIRECTION('ref_axis',(-1.,-9.80058945876001E-16,0.));
#335=DIRECTION('center_axis',(9.80058945876001E-16,-1.,0.));
#336=DIRECTION('ref_axis',(-1.,-9.80058945876001E-16,0.));
#337=DIRECTION('center_axis',(9.80058945876001E-16,-1.,0.));
#338=DIRECTION('ref_axis',(-1.,-9.80058945876001E-16,0.));
#339=DIRECTION('center_axis',(9.80058945876001E-16,-1.,0.));
#340=DIRECTION('ref_axis',(-1.,-9.80058945876001E-16,0.));
#341=DIRECTION('',(-0.675899229889918,0.736994050881156,-8.27737828430848E-17));
#342=DIRECTION('center_axis',(1.,6.00903587103123E-10,1.20987117971944E-16));
#343=DIRECTION('ref_axis',(-1.2246467990974E-16,2.45890017884316E-9,1.));
#344=DIRECTION('center_axis',(9.80058945876001E-16,-1.,0.));
#345=DIRECTION('ref_axis',(-1.,-9.80058945876001E-16,0.));
#346=DIRECTION('center_axis',(9.80058945876001E-16,-1.,0.));
#347=DIRECTION('ref_axis',(-1.,-9.80058945876001E-16,0.));
#348=DIRECTION('center_axis',(9.80058945876001E-16,-1.,0.));
#349=DIRECTION('ref_axis',(0.,0.,-1.));
#350=DIRECTION('center_axis',(-1.,-9.80058945876001E-16,-1.22464679914735E-16));
#351=DIRECTION('ref_axis',(-1.22464679914735E-16,0.,1.));
#352=CARTESIAN_POINT('',(0.,0.,0.));
#353=CARTESIAN_POINT('Origin',(-2.62165768021829E-14,24.7499999999999,0.));
#354=CARTESIAN_POINT('',(-23.3,24.4999999999999,2.85342704201333E-15));
#355=CARTESIAN_POINT('',(23.3,24.4999999999999,2.85342704201333E-15));
#356=CARTESIAN_POINT('Origin',(-2.59715620657139E-14,24.4999999999999,0.));
#357=CARTESIAN_POINT('Origin',(-2.59715620657139E-14,24.4999999999999,0.));
#358=CARTESIAN_POINT('',(-22.8,24.9999999999999,-2.79219470205597E-15));
#359=CARTESIAN_POINT('',(-23.05,24.7499999999999,-2.82281087203465E-15));
#360=CARTESIAN_POINT('Origin',(-2.64615915386519E-14,24.9999999999999,0.));
#361=CARTESIAN_POINT('Origin',(-11.65,24.9999999999999,0.));
#362=CARTESIAN_POINT('',(6.72249999999997,25.,1.33591063056351E-16));
#363=CARTESIAN_POINT('Origin',(-2.7441650484528E-14,25.,9.56832684413444E-16));
#364=CARTESIAN_POINT('Origin',(-2.5971562065714E-14,24.5,0.));
#365=CARTESIAN_POINT('',(-23.3,23.9999999999999,0.));
#366=CARTESIAN_POINT('',(23.3,23.9999999999999,2.85342704201333E-15));
#367=CARTESIAN_POINT('Origin',(-2.5481532592776E-14,23.9999999999999,0.));
#368=CARTESIAN_POINT('Origin',(-2.5481532592776E-14,23.9999999999999,0.));
#369=CARTESIAN_POINT('',(23.3,24.5,2.85342704201333E-15));
#370=CARTESIAN_POINT('Origin',(-2.695162101159E-14,24.5,9.56832684413444E-16));
#371=CARTESIAN_POINT('',(5.72249999999998,23.9999999999999,1.6576136703883E-15));
#372=CARTESIAN_POINT('',(-5.72250000000003,23.9999999999999,1.65763681522551E-15));
#373=CARTESIAN_POINT('Origin',(-2.6461591538652E-14,23.9999999999999,9.56832684413444E-16));
#374=CARTESIAN_POINT('Origin',(-2.6461591538652E-14,23.9999999999999,9.56832684413444E-16));
#375=CARTESIAN_POINT('',(6.22249999999997,24.5,1.94796213644003E-16));
#376=CARTESIAN_POINT('Origin',(-2.6461591538652E-14,19.9999999999999,2.33486982377251E-15));
#377=CARTESIAN_POINT('',(5.72249999999998,14.9999999999999,4.05741624797134E-15));
#378=CARTESIAN_POINT('',(-5.72250000000003,14.9999999999999,4.75822037878342E-15));
#379=CARTESIAN_POINT('Origin',(-2.6461591538652E-14,14.9999999999999,4.05741624797134E-15));
#380=CARTESIAN_POINT('',(-5.72250000000003,19.9999999999999,3.03567395458458E-15));
#381=CARTESIAN_POINT('Origin',(-2.6461591538652E-14,14.9999999999999,4.05741624797134E-15));
#382=CARTESIAN_POINT('Origin',(-2.6461591538652E-14,14.9999999999999,4.05741624797134E-15));
#383=CARTESIAN_POINT('Origin',(-25.1,-5.11535258596041E-14,0.));
#384=CARTESIAN_POINT('',(-50.2000000000001,-9.52016243616072E-14,0.));
#385=CARTESIAN_POINT('',(-5.85370924795693E-15,-4.60048665829049E-14,50.2000000000001));
#386=CARTESIAN_POINT('Origin',(-1.96011789175197E-15,-4.60187443707128E-14,
0.));
#387=CARTESIAN_POINT('Origin',(-1.96011789175197E-15,-4.60187443707128E-14,
0.));
#388=CARTESIAN_POINT('Origin',(-29.4,23.9999999999999,0.));
#389=CARTESIAN_POINT('',(-35.5000000000001,23.9999999999999,0.));
#390=CARTESIAN_POINT('',(35.5,24.,4.3474961369731E-15));
#391=CARTESIAN_POINT('Origin',(-2.5481532592776E-14,24.,0.));
#392=CARTESIAN_POINT('Origin',(-2.5481532592776E-14,24.,0.));
#393=CARTESIAN_POINT('Origin',(-2.19533203876224E-14,20.4,0.));
#394=CARTESIAN_POINT('',(-35.5000000000001,16.7999999999999,0.));
#395=CARTESIAN_POINT('',(35.5,16.8,4.3474961369731E-15));
#396=CARTESIAN_POINT('Origin',(-1.84251081824688E-14,16.8,0.));
#397=CARTESIAN_POINT('Origin',(-1.84251081824688E-14,16.8,0.));
#398=CARTESIAN_POINT('',(35.5,20.4,4.3474961369731E-15));
#399=CARTESIAN_POINT('Origin',(-1.05507867233872E-14,8.76546137126136,0.));
#400=CARTESIAN_POINT('',(-50.2369940508812,0.730922742522701,0.));
#401=CARTESIAN_POINT('',(50.2369940508812,0.730922742522792,6.15225739631963E-15));
#402=CARTESIAN_POINT('Origin',(-2.67646526430565E-15,0.73092274252275,0.));
#403=CARTESIAN_POINT('',(-2.27586013241681E-8,0.73092274252275,50.2369940508812));
#404=CARTESIAN_POINT('Origin',(-2.67646526430565E-15,0.73092274252275,0.));
#405=CARTESIAN_POINT('Origin',(-2.67646526430565E-15,0.73092274252275,0.));
#406=CARTESIAN_POINT('',(42.8684970254406,8.7654613712614,5.24987676664637E-15));
#407=CARTESIAN_POINT('Ctrl Pts',(-2.27585953248861E-8,0.730922997098475,
50.2369938579155));
#408=CARTESIAN_POINT('Ctrl Pts',(-50.2369939739255,0.730922966910885,50.2369938579155));
#409=CARTESIAN_POINT('Ctrl Pts',(-50.2369939739255,0.730922843383131,-9.32514258050759E-8));
#410=CARTESIAN_POINT('Ctrl Pts',(-50.2369939739255,0.730922719855376,-50.2369940444183));
#411=CARTESIAN_POINT('Ctrl Pts',(-2.27585953248861E-8,0.730922750042966,
-50.2369940444184));
#412=CARTESIAN_POINT('Ctrl Pts',(50.2369939284083,0.730922780230556,-50.2369940444183));
#413=CARTESIAN_POINT('Ctrl Pts',(50.2369939284083,0.730922903758311,-9.32514259535324E-8));
#414=CARTESIAN_POINT('Ctrl Pts',(50.2369939284083,0.730923027286065,50.2369938579155));
#415=CARTESIAN_POINT('Ctrl Pts',(-2.27585953248861E-8,0.730922997098475,
50.2369938579155));
#416=CARTESIAN_POINT('Ctrl Pts',(-2.26611310954112E-8,0.5687268788111,50.3600402504596));
#417=CARTESIAN_POINT('Ctrl Pts',(-50.3600403659733,0.568726848549571,50.3600402504596));
#418=CARTESIAN_POINT('Ctrl Pts',(-50.3600403659734,0.568726724719259,-9.28526017375615E-8));
#419=CARTESIAN_POINT('Ctrl Pts',(-50.3600403659733,0.568726600888948,-50.3600404361648));
#420=CARTESIAN_POINT('Ctrl Pts',(-2.26611310954112E-8,0.568726631150477,
-50.3600404361648));
#421=CARTESIAN_POINT('Ctrl Pts',(50.3600403206511,0.568726661412006,-50.3600404361648));
#422=CARTESIAN_POINT('Ctrl Pts',(50.3600403206511,0.568726785242317,-9.28526018863816E-8));
#423=CARTESIAN_POINT('Ctrl Pts',(50.3600403206511,0.568726909072629,50.3600402504596));
#424=CARTESIAN_POINT('Ctrl Pts',(-2.26611310954112E-8,0.5687268788111,50.3600402504596));
#425=CARTESIAN_POINT('Ctrl Pts',(-2.25627409638596E-8,0.404989910877138,
50.4810286831192));
#426=CARTESIAN_POINT('Ctrl Pts',(-50.4810287981319,0.404989880542907,50.4810286831192));
#427=CARTESIAN_POINT('Ctrl Pts',(-50.4810287981319,0.404989756415094,-9.24499888745689E-8));
#428=CARTESIAN_POINT('Ctrl Pts',(-50.4810287981319,0.404989632287282,-50.4810288680191));
#429=CARTESIAN_POINT('Ctrl Pts',(-2.25627409638596E-8,0.404989662621513,
-50.4810288680191));
#430=CARTESIAN_POINT('Ctrl Pts',(50.4810287530064,0.404989692955744,-50.4810288680191));
#431=CARTESIAN_POINT('Ctrl Pts',(50.4810287530064,0.404989817083557,-9.24499890237466E-8));
#432=CARTESIAN_POINT('Ctrl Pts',(50.4810287530064,0.40498994121137,50.4810286831192));
#433=CARTESIAN_POINT('Ctrl Pts',(-2.25627409638596E-8,0.404989910877138,
50.4810286831192));
#434=CARTESIAN_POINT('',(-2.25627471533817E-8,0.40498992315718,50.4810286747566));
#435=CARTESIAN_POINT('Origin',(-1.10483737316141E-8,-18.7567700187705,24.5488928401155));
#436=CARTESIAN_POINT('',(-50.4810286747566,0.404989923157131,0.));
#437=CARTESIAN_POINT('Origin',(-2.35703188893184E-15,0.40498992315718,0.));
#438=CARTESIAN_POINT('Origin',(-2.35703188893184E-15,0.40498992315718,0.));
#439=CARTESIAN_POINT('Origin',(0.,0.299999999999954,0.));
#440=CARTESIAN_POINT('Origin',(-6.14772693171973E-15,0.299999999999954,
50.2000000000001));
#441=UNCERTAINTY_MEASURE_WITH_UNIT(LENGTH_MEASURE(0.01),#445,
'DISTANCE_ACCURACY_VALUE',
'Maximum model space distance between geometric entities at asserted c
onnectivities');
#442=UNCERTAINTY_MEASURE_WITH_UNIT(LENGTH_MEASURE(0.01),#445,
'DISTANCE_ACCURACY_VALUE',
'Maximum model space distance between geometric entities at asserted c
onnectivities');
#443=(
GEOMETRIC_REPRESENTATION_CONTEXT(3)
GLOBAL_UNCERTAINTY_ASSIGNED_CONTEXT((#441))
GLOBAL_UNIT_ASSIGNED_CONTEXT((#445,#448,#447))
REPRESENTATION_CONTEXT('','3D')
);
#444=(
GEOMETRIC_REPRESENTATION_CONTEXT(3)
GLOBAL_UNCERTAINTY_ASSIGNED_CONTEXT((#442))
GLOBAL_UNIT_ASSIGNED_CONTEXT((#445,#448,#447))
REPRESENTATION_CONTEXT('','3D')
);
#445=(
LENGTH_UNIT()
NAMED_UNIT(*)
SI_UNIT(.MILLI.,.METRE.)
);
#446=(
LENGTH_UNIT()
NAMED_UNIT(*)
SI_UNIT(.CENTI.,.METRE.)
);
#447=(
NAMED_UNIT(*)
SI_UNIT($,.STERADIAN.)
SOLID_ANGLE_UNIT()
);
#448=(
NAMED_UNIT(*)
PLANE_ANGLE_UNIT()
SI_UNIT($,.RADIAN.)
);
#449=SHAPE_DEFINITION_REPRESENTATION(#450,#451);
#450=PRODUCT_DEFINITION_SHAPE('',$,#453);
#451=SHAPE_REPRESENTATION('',(#241),#443);
#452=DESIGN_CONTEXT('part definition',#457,'design');
#453=PRODUCT_DEFINITION('Part2','vdl100nit',#454,#452);
#454=PRODUCT_DEFINITION_FORMATION('',$,#459);
#455=PRODUCT_RELATED_PRODUCT_CATEGORY('vdl100nit','vdl100nit',(#459));
#456=APPLICATION_PROTOCOL_DEFINITION('international standard',
'ap203_configuration_controlled_3d_design_of_mechanical_parts_and_asse
mblies_mim_lf',2004,#457);
#457=APPLICATION_CONTEXT(
'Configuration Controlled 3D Design of Mechanical Parts and Assemblies');
#458=MECHANICAL_CONTEXT('part definition',#457,'mechanical');
#459=PRODUCT('Part2','vdl100nit',$,(#458));
#460=PRESENTATION_STYLE_ASSIGNMENT((#463));
#461=PRESENTATION_STYLE_ASSIGNMENT((#464));
#462=PRESENTATION_STYLE_ASSIGNMENT((#465));
#463=SURFACE_STYLE_USAGE(.BOTH.,#466);
#464=SURFACE_STYLE_USAGE(.BOTH.,#467);
#465=SURFACE_STYLE_USAGE(.BOTH.,#468);
#466=SURFACE_SIDE_STYLE('',(#469));
#467=SURFACE_SIDE_STYLE('',(#470));
#468=SURFACE_SIDE_STYLE('',(#471));
#469=SURFACE_STYLE_FILL_AREA(#472);
#470=SURFACE_STYLE_FILL_AREA(#473);
#471=SURFACE_STYLE_FILL_AREA(#474);
#472=FILL_AREA_STYLE('',(#475));
#473=FILL_AREA_STYLE('',(#476));
#474=FILL_AREA_STYLE('',(#477));
#475=FILL_AREA_STYLE_COLOUR('',#478);
#476=FILL_AREA_STYLE_COLOUR('',#479);
#477=FILL_AREA_STYLE_COLOUR('',#480);
#478=COLOUR_RGB('',0.749019607843137,0.749019607843137,0.749019607843137);
#479=COLOUR_RGB('',0.0509803921568627,0.262745098039216,1.);
#480=COLOUR_RGB('',0.32156862745098,0.32156862745098,0.32156862745098);
ENDSEC;
END-ISO-10303-21;
