ISO-10303-21;
HEADER;
/* Generated by software containing ST-Developer
 * from STEP Tools, Inc. (www.steptools.com) 
 */

FILE_DESCRIPTION(
/* description */ (''),
/* implementation_level */ '2;1');

FILE_NAME(
/* name */ 
'C:\\Users\\enginyeria\\Desktop\\stp ventosas roscas\\vsa46m10nit.stp',

/* time_stamp */ '2020-10-06T15:54:52+02:00',
/* author */ ('enginyeria'),
/* organization */ (''),
/* preprocessor_version */ 'ST-DEVELOPER v17.2',
/* originating_system */ 'Autodesk Inventor 2019',
/* authorisation */ '');

FILE_SCHEMA (('CONFIG_CONTROL_DESIGN'));
ENDSEC;

DATA;
#10=MECHANICAL_DESIGN_GEOMETRIC_PRESENTATION_REPRESENTATION('',(#231,#232,
#233,#234,#235,#236,#237,#238,#239,#240,#241,#242,#243,#244,#245),#487);
#11=SHAPE_REPRESENTATION_RELATIONSHIP('SRR','None',#494,#12);
#12=ADVANCED_BREP_SHAPE_REPRESENTATION('',(#13),#486);
#13=MANIFOLD_SOLID_BREP('S\X\F3lido2',#260);
#14=TOROIDAL_SURFACE('',#308,8.,1.);
#15=CYLINDRICAL_SURFACE('',#287,1.5);
#16=CYLINDRICAL_SURFACE('',#293,23.);
#17=CYLINDRICAL_SURFACE('',#299,12.);
#18=CYLINDRICAL_SURFACE('',#315,5.);
#19=FACE_BOUND('',#43,.T.);
#20=FACE_BOUND('',#51,.T.);
#21=FACE_BOUND('',#54,.T.);
#22=PLANE('',#284);
#23=PLANE('',#290);
#24=PLANE('',#305);
#25=PLANE('',#312);
#26=PLANE('',#319);
#27=FACE_OUTER_BOUND('',#41,.T.);
#28=FACE_OUTER_BOUND('',#42,.T.);
#29=FACE_OUTER_BOUND('',#44,.T.);
#30=FACE_OUTER_BOUND('',#45,.T.);
#31=FACE_OUTER_BOUND('',#46,.T.);
#32=FACE_OUTER_BOUND('',#47,.T.);
#33=FACE_OUTER_BOUND('',#48,.T.);
#34=FACE_OUTER_BOUND('',#49,.T.);
#35=FACE_OUTER_BOUND('',#50,.T.);
#36=FACE_OUTER_BOUND('',#52,.T.);
#37=FACE_OUTER_BOUND('',#53,.T.);
#38=FACE_OUTER_BOUND('',#55,.T.);
#39=FACE_OUTER_BOUND('',#56,.T.);
#40=FACE_OUTER_BOUND('',#57,.T.);
#41=EDGE_LOOP('',(#159,#160,#161,#162,#163));
#42=EDGE_LOOP('',(#164,#165));
#43=EDGE_LOOP('',(#166));
#44=EDGE_LOOP('',(#167,#168,#169,#170,#171,#172));
#45=EDGE_LOOP('',(#173,#174));
#46=EDGE_LOOP('',(#175,#176,#177,#178,#179,#180));
#47=EDGE_LOOP('',(#181,#182,#183,#184,#185,#186));
#48=EDGE_LOOP('',(#187,#188,#189,#190,#191,#192));
#49=EDGE_LOOP('',(#193,#194,#195,#196,#197,#198));
#50=EDGE_LOOP('',(#199,#200));
#51=EDGE_LOOP('',(#201,#202));
#52=EDGE_LOOP('',(#203,#204,#205,#206,#207,#208));
#53=EDGE_LOOP('',(#209,#210));
#54=EDGE_LOOP('',(#211,#212));
#55=EDGE_LOOP('',(#213,#214,#215,#216,#217,#218));
#56=EDGE_LOOP('',(#219,#220,#221,#222,#223,#224));
#57=EDGE_LOOP('',(#225,#226));
#58=LINE('',#416,#66);
#59=LINE('',#429,#67);
#60=LINE('',#440,#68);
#61=LINE('',#443,#69);
#62=LINE('',#452,#70);
#63=LINE('',#455,#71);
#64=LINE('',#480,#72);
#65=LINE('',#482,#73);
#66=VECTOR('',#326,1.6);
#67=VECTOR('',#343,1.5);
#68=VECTOR('',#356,23.);
#69=VECTOR('',#359,17.5);
#70=VECTOR('',#370,12.);
#71=VECTOR('',#373,11.);
#72=VECTOR('',#404,5.);
#73=VECTOR('',#407,4.50000000000012);
#74=CIRCLE('',#281,1.5);
#75=CIRCLE('',#282,1.7);
#76=CIRCLE('',#283,1.5);
#77=CIRCLE('',#285,4.00000000000023);
#78=CIRCLE('',#286,4.00000000000023);
#79=CIRCLE('',#288,1.5);
#80=CIRCLE('',#289,1.5);
#81=CIRCLE('',#291,23.);
#82=CIRCLE('',#292,23.);
#83=CIRCLE('',#294,23.);
#84=CIRCLE('',#295,23.);
#85=CIRCLE('',#297,12.);
#86=CIRCLE('',#298,12.);
#87=CIRCLE('',#300,12.);
#88=CIRCLE('',#301,12.);
#89=CIRCLE('',#303,9.99999999999992);
#90=CIRCLE('',#304,9.99999999999992);
#91=CIRCLE('',#306,9.);
#92=CIRCLE('',#307,9.);
#93=CIRCLE('',#309,7.);
#94=CIRCLE('',#310,7.);
#95=CIRCLE('',#311,1.);
#96=CIRCLE('',#313,5.);
#97=CIRCLE('',#314,5.);
#98=CIRCLE('',#316,5.);
#99=CIRCLE('',#317,5.);
#100=VERTEX_POINT('',#412);
#101=VERTEX_POINT('',#413);
#102=VERTEX_POINT('',#415);
#103=VERTEX_POINT('',#420);
#104=VERTEX_POINT('',#421);
#105=VERTEX_POINT('',#425);
#106=VERTEX_POINT('',#426);
#107=VERTEX_POINT('',#431);
#108=VERTEX_POINT('',#432);
#109=VERTEX_POINT('',#436);
#110=VERTEX_POINT('',#437);
#111=VERTEX_POINT('',#442);
#112=VERTEX_POINT('',#444);
#113=VERTEX_POINT('',#448);
#114=VERTEX_POINT('',#449);
#115=VERTEX_POINT('',#454);
#116=VERTEX_POINT('',#456);
#117=VERTEX_POINT('',#460);
#118=VERTEX_POINT('',#461);
#119=VERTEX_POINT('',#465);
#120=VERTEX_POINT('',#466);
#121=VERTEX_POINT('',#471);
#122=VERTEX_POINT('',#472);
#123=VERTEX_POINT('',#476);
#124=VERTEX_POINT('',#477);
#125=EDGE_CURVE('',#100,#101,#74,.T.);
#126=EDGE_CURVE('',#101,#102,#58,.T.);
#127=EDGE_CURVE('',#102,#102,#75,.T.);
#128=EDGE_CURVE('',#101,#100,#76,.T.);
#129=EDGE_CURVE('',#103,#104,#77,.T.);
#130=EDGE_CURVE('',#104,#103,#78,.T.);
#131=EDGE_CURVE('',#105,#106,#79,.T.);
#132=EDGE_CURVE('',#106,#105,#80,.T.);
#133=EDGE_CURVE('',#106,#100,#59,.T.);
#134=EDGE_CURVE('',#107,#108,#81,.T.);
#135=EDGE_CURVE('',#108,#107,#82,.T.);
#136=EDGE_CURVE('',#109,#110,#83,.T.);
#137=EDGE_CURVE('',#110,#109,#84,.T.);
#138=EDGE_CURVE('',#110,#108,#60,.T.);
#139=EDGE_CURVE('',#110,#111,#61,.T.);
#140=EDGE_CURVE('',#112,#111,#85,.T.);
#141=EDGE_CURVE('',#111,#112,#86,.T.);
#142=EDGE_CURVE('',#113,#114,#87,.T.);
#143=EDGE_CURVE('',#114,#113,#88,.T.);
#144=EDGE_CURVE('',#114,#111,#62,.T.);
#145=EDGE_CURVE('',#114,#115,#63,.T.);
#146=EDGE_CURVE('',#116,#115,#89,.T.);
#147=EDGE_CURVE('',#115,#116,#90,.T.);
#148=EDGE_CURVE('',#117,#118,#91,.T.);
#149=EDGE_CURVE('',#118,#117,#92,.T.);
#150=EDGE_CURVE('',#119,#120,#93,.T.);
#151=EDGE_CURVE('',#120,#119,#94,.T.);
#152=EDGE_CURVE('',#120,#118,#95,.T.);
#153=EDGE_CURVE('',#121,#122,#96,.T.);
#154=EDGE_CURVE('',#122,#121,#97,.T.);
#155=EDGE_CURVE('',#123,#124,#98,.T.);
#156=EDGE_CURVE('',#124,#123,#99,.T.);
#157=EDGE_CURVE('',#124,#122,#64,.T.);
#158=EDGE_CURVE('',#124,#104,#65,.T.);
#159=ORIENTED_EDGE('',*,*,#125,.T.);
#160=ORIENTED_EDGE('',*,*,#126,.T.);
#161=ORIENTED_EDGE('',*,*,#127,.T.);
#162=ORIENTED_EDGE('',*,*,#126,.F.);
#163=ORIENTED_EDGE('',*,*,#128,.T.);
#164=ORIENTED_EDGE('',*,*,#129,.T.);
#165=ORIENTED_EDGE('',*,*,#130,.T.);
#166=ORIENTED_EDGE('',*,*,#127,.F.);
#167=ORIENTED_EDGE('',*,*,#131,.F.);
#168=ORIENTED_EDGE('',*,*,#132,.F.);
#169=ORIENTED_EDGE('',*,*,#133,.T.);
#170=ORIENTED_EDGE('',*,*,#128,.F.);
#171=ORIENTED_EDGE('',*,*,#125,.F.);
#172=ORIENTED_EDGE('',*,*,#133,.F.);
#173=ORIENTED_EDGE('',*,*,#134,.F.);
#174=ORIENTED_EDGE('',*,*,#135,.F.);
#175=ORIENTED_EDGE('',*,*,#136,.F.);
#176=ORIENTED_EDGE('',*,*,#137,.F.);
#177=ORIENTED_EDGE('',*,*,#138,.T.);
#178=ORIENTED_EDGE('',*,*,#135,.T.);
#179=ORIENTED_EDGE('',*,*,#134,.T.);
#180=ORIENTED_EDGE('',*,*,#138,.F.);
#181=ORIENTED_EDGE('',*,*,#136,.T.);
#182=ORIENTED_EDGE('',*,*,#139,.T.);
#183=ORIENTED_EDGE('',*,*,#140,.F.);
#184=ORIENTED_EDGE('',*,*,#141,.F.);
#185=ORIENTED_EDGE('',*,*,#139,.F.);
#186=ORIENTED_EDGE('',*,*,#137,.T.);
#187=ORIENTED_EDGE('',*,*,#142,.F.);
#188=ORIENTED_EDGE('',*,*,#143,.F.);
#189=ORIENTED_EDGE('',*,*,#144,.T.);
#190=ORIENTED_EDGE('',*,*,#141,.T.);
#191=ORIENTED_EDGE('',*,*,#140,.T.);
#192=ORIENTED_EDGE('',*,*,#144,.F.);
#193=ORIENTED_EDGE('',*,*,#142,.T.);
#194=ORIENTED_EDGE('',*,*,#145,.T.);
#195=ORIENTED_EDGE('',*,*,#146,.F.);
#196=ORIENTED_EDGE('',*,*,#147,.F.);
#197=ORIENTED_EDGE('',*,*,#145,.F.);
#198=ORIENTED_EDGE('',*,*,#143,.T.);
#199=ORIENTED_EDGE('',*,*,#146,.T.);
#200=ORIENTED_EDGE('',*,*,#147,.T.);
#201=ORIENTED_EDGE('',*,*,#148,.F.);
#202=ORIENTED_EDGE('',*,*,#149,.F.);
#203=ORIENTED_EDGE('',*,*,#150,.F.);
#204=ORIENTED_EDGE('',*,*,#151,.F.);
#205=ORIENTED_EDGE('',*,*,#152,.T.);
#206=ORIENTED_EDGE('',*,*,#149,.T.);
#207=ORIENTED_EDGE('',*,*,#148,.T.);
#208=ORIENTED_EDGE('',*,*,#152,.F.);
#209=ORIENTED_EDGE('',*,*,#150,.T.);
#210=ORIENTED_EDGE('',*,*,#151,.T.);
#211=ORIENTED_EDGE('',*,*,#153,.F.);
#212=ORIENTED_EDGE('',*,*,#154,.F.);
#213=ORIENTED_EDGE('',*,*,#155,.F.);
#214=ORIENTED_EDGE('',*,*,#156,.F.);
#215=ORIENTED_EDGE('',*,*,#157,.T.);
#216=ORIENTED_EDGE('',*,*,#154,.T.);
#217=ORIENTED_EDGE('',*,*,#153,.T.);
#218=ORIENTED_EDGE('',*,*,#157,.F.);
#219=ORIENTED_EDGE('',*,*,#155,.T.);
#220=ORIENTED_EDGE('',*,*,#158,.T.);
#221=ORIENTED_EDGE('',*,*,#129,.F.);
#222=ORIENTED_EDGE('',*,*,#130,.F.);
#223=ORIENTED_EDGE('',*,*,#158,.F.);
#224=ORIENTED_EDGE('',*,*,#156,.T.);
#225=ORIENTED_EDGE('',*,*,#131,.T.);
#226=ORIENTED_EDGE('',*,*,#132,.T.);
#227=CONICAL_SURFACE('',#280,1.6,0.785398163397459);
#228=CONICAL_SURFACE('',#296,17.5,0.683709311634367);
#229=CONICAL_SURFACE('',#302,11.,0.588002603547587);
#230=CONICAL_SURFACE('',#318,4.50000000000012,0.785398163397335);
#231=STYLED_ITEM('',(#504),#246);
#232=STYLED_ITEM('',(#504),#247);
#233=STYLED_ITEM('',(#504),#248);
#234=STYLED_ITEM('',(#503),#249);
#235=STYLED_ITEM('',(#503),#250);
#236=STYLED_ITEM('',(#503),#251);
#237=STYLED_ITEM('',(#503),#252);
#238=STYLED_ITEM('',(#503),#253);
#239=STYLED_ITEM('',(#503),#254);
#240=STYLED_ITEM('',(#503),#255);
#241=STYLED_ITEM('',(#503),#256);
#242=STYLED_ITEM('',(#504),#257);
#243=STYLED_ITEM('',(#504),#258);
#244=STYLED_ITEM('',(#504),#259);
#245=STYLED_ITEM('',(#503),#13);
#246=ADVANCED_FACE('',(#27),#227,.F.);
#247=ADVANCED_FACE('',(#28,#19),#22,.T.);
#248=ADVANCED_FACE('',(#29),#15,.F.);
#249=ADVANCED_FACE('',(#30),#23,.T.);
#250=ADVANCED_FACE('',(#31),#16,.T.);
#251=ADVANCED_FACE('',(#32),#228,.T.);
#252=ADVANCED_FACE('',(#33),#17,.T.);
#253=ADVANCED_FACE('',(#34),#229,.T.);
#254=ADVANCED_FACE('',(#35,#20),#24,.T.);
#255=ADVANCED_FACE('',(#36),#14,.T.);
#256=ADVANCED_FACE('',(#37,#21),#25,.T.);
#257=ADVANCED_FACE('',(#38),#18,.T.);
#258=ADVANCED_FACE('',(#39),#230,.T.);
#259=ADVANCED_FACE('',(#40),#26,.T.);
#260=CLOSED_SHELL('',(#246,#247,#248,#249,#250,#251,#252,#253,#254,#255,
#256,#257,#258,#259));
#261=DERIVED_UNIT_ELEMENT(#263,1.);
#262=DERIVED_UNIT_ELEMENT(#489,3.);
#263=(
MASS_UNIT()
NAMED_UNIT(*)
SI_UNIT($,.GRAM.)
);
#264=DERIVED_UNIT((#261,#262));
#265=MEASURE_REPRESENTATION_ITEM('density measure',
POSITIVE_RATIO_MEASURE(1.),#264);
#266=PROPERTY_DEFINITION_REPRESENTATION(#271,#268);
#267=PROPERTY_DEFINITION_REPRESENTATION(#272,#269);
#268=REPRESENTATION('material name',(#270),#486);
#269=REPRESENTATION('density',(#265),#486);
#270=DESCRIPTIVE_REPRESENTATION_ITEM('Gen\X\E9rico','Gen\X\E9rico');
#271=PROPERTY_DEFINITION('material property','material name',#496);
#272=PROPERTY_DEFINITION('material property','density of part',#496);
#273=DATE_TIME_ROLE('creation_date');
#274=CC_DESIGN_DATE_AND_TIME_ASSIGNMENT(#275,#273,(#496));
#275=DATE_AND_TIME(#276,#277);
#276=CALENDAR_DATE(2020,6,10);
#277=LOCAL_TIME(15,52,49.,#278);
#278=COORDINATED_UNIVERSAL_TIME_OFFSET(0,0,.BEHIND.);
#279=AXIS2_PLACEMENT_3D('placement',#410,#320,#321);
#280=AXIS2_PLACEMENT_3D('',#411,#322,#323);
#281=AXIS2_PLACEMENT_3D('',#414,#324,#325);
#282=AXIS2_PLACEMENT_3D('',#417,#327,#328);
#283=AXIS2_PLACEMENT_3D('',#418,#329,#330);
#284=AXIS2_PLACEMENT_3D('',#419,#331,#332);
#285=AXIS2_PLACEMENT_3D('',#422,#333,#334);
#286=AXIS2_PLACEMENT_3D('',#423,#335,#336);
#287=AXIS2_PLACEMENT_3D('',#424,#337,#338);
#288=AXIS2_PLACEMENT_3D('',#427,#339,#340);
#289=AXIS2_PLACEMENT_3D('',#428,#341,#342);
#290=AXIS2_PLACEMENT_3D('',#430,#344,#345);
#291=AXIS2_PLACEMENT_3D('',#433,#346,#347);
#292=AXIS2_PLACEMENT_3D('',#434,#348,#349);
#293=AXIS2_PLACEMENT_3D('',#435,#350,#351);
#294=AXIS2_PLACEMENT_3D('',#438,#352,#353);
#295=AXIS2_PLACEMENT_3D('',#439,#354,#355);
#296=AXIS2_PLACEMENT_3D('',#441,#357,#358);
#297=AXIS2_PLACEMENT_3D('',#445,#360,#361);
#298=AXIS2_PLACEMENT_3D('',#446,#362,#363);
#299=AXIS2_PLACEMENT_3D('',#447,#364,#365);
#300=AXIS2_PLACEMENT_3D('',#450,#366,#367);
#301=AXIS2_PLACEMENT_3D('',#451,#368,#369);
#302=AXIS2_PLACEMENT_3D('',#453,#371,#372);
#303=AXIS2_PLACEMENT_3D('',#457,#374,#375);
#304=AXIS2_PLACEMENT_3D('',#458,#376,#377);
#305=AXIS2_PLACEMENT_3D('',#459,#378,#379);
#306=AXIS2_PLACEMENT_3D('',#462,#380,#381);
#307=AXIS2_PLACEMENT_3D('',#463,#382,#383);
#308=AXIS2_PLACEMENT_3D('',#464,#384,#385);
#309=AXIS2_PLACEMENT_3D('',#467,#386,#387);
#310=AXIS2_PLACEMENT_3D('',#468,#388,#389);
#311=AXIS2_PLACEMENT_3D('',#469,#390,#391);
#312=AXIS2_PLACEMENT_3D('',#470,#392,#393);
#313=AXIS2_PLACEMENT_3D('',#473,#394,#395);
#314=AXIS2_PLACEMENT_3D('',#474,#396,#397);
#315=AXIS2_PLACEMENT_3D('',#475,#398,#399);
#316=AXIS2_PLACEMENT_3D('',#478,#400,#401);
#317=AXIS2_PLACEMENT_3D('',#479,#402,#403);
#318=AXIS2_PLACEMENT_3D('',#481,#405,#406);
#319=AXIS2_PLACEMENT_3D('',#483,#408,#409);
#320=DIRECTION('axis',(0.,0.,1.));
#321=DIRECTION('refdir',(1.,0.,0.));
#322=DIRECTION('center_axis',(0.,1.,0.));
#323=DIRECTION('ref_axis',(1.,0.,0.));
#324=DIRECTION('center_axis',(0.,-1.,0.));
#325=DIRECTION('ref_axis',(1.,0.,0.));
#326=DIRECTION('',(-0.707106781186555,0.70710678118654,8.65956056235502E-17));
#327=DIRECTION('center_axis',(0.,1.,0.));
#328=DIRECTION('ref_axis',(1.,0.,0.));
#329=DIRECTION('center_axis',(0.,-1.,0.));
#330=DIRECTION('ref_axis',(1.,0.,0.));
#331=DIRECTION('center_axis',(0.,1.,0.));
#332=DIRECTION('ref_axis',(0.,0.,1.));
#333=DIRECTION('center_axis',(0.,1.,0.));
#334=DIRECTION('ref_axis',(-1.,0.,0.));
#335=DIRECTION('center_axis',(0.,1.,0.));
#336=DIRECTION('ref_axis',(-1.,0.,0.));
#337=DIRECTION('center_axis',(0.,1.,0.));
#338=DIRECTION('ref_axis',(-1.,0.,0.));
#339=DIRECTION('center_axis',(0.,1.,0.));
#340=DIRECTION('ref_axis',(-1.,0.,0.));
#341=DIRECTION('center_axis',(0.,1.,0.));
#342=DIRECTION('ref_axis',(-1.,0.,0.));
#343=DIRECTION('',(0.,1.,0.));
#344=DIRECTION('center_axis',(0.,-1.,0.));
#345=DIRECTION('ref_axis',(0.,0.,-1.));
#346=DIRECTION('center_axis',(0.,1.,0.));
#347=DIRECTION('ref_axis',(-1.,0.,0.));
#348=DIRECTION('center_axis',(0.,1.,0.));
#349=DIRECTION('ref_axis',(-1.,0.,0.));
#350=DIRECTION('center_axis',(0.,1.,0.));
#351=DIRECTION('ref_axis',(-1.,0.,0.));
#352=DIRECTION('center_axis',(0.,1.,0.));
#353=DIRECTION('ref_axis',(-1.,0.,0.));
#354=DIRECTION('center_axis',(0.,1.,0.));
#355=DIRECTION('ref_axis',(-1.,0.,0.));
#356=DIRECTION('',(0.,-1.,0.));
#357=DIRECTION('center_axis',(0.,-1.,0.));
#358=DIRECTION('ref_axis',(-1.,0.,0.));
#359=DIRECTION('',(-0.631672951162232,0.775234985517292,-7.7357625774879E-17));
#360=DIRECTION('center_axis',(0.,1.,0.));
#361=DIRECTION('ref_axis',(-1.,0.,0.));
#362=DIRECTION('center_axis',(0.,1.,0.));
#363=DIRECTION('ref_axis',(-1.,0.,0.));
#364=DIRECTION('center_axis',(0.,1.,0.));
#365=DIRECTION('ref_axis',(-1.,0.,0.));
#366=DIRECTION('center_axis',(0.,1.,0.));
#367=DIRECTION('ref_axis',(-1.,0.,0.));
#368=DIRECTION('center_axis',(0.,1.,0.));
#369=DIRECTION('ref_axis',(-1.,0.,0.));
#370=DIRECTION('',(0.,-1.,0.));
#371=DIRECTION('center_axis',(0.,-1.,0.));
#372=DIRECTION('ref_axis',(-1.,0.,0.));
#373=DIRECTION('',(-0.554700196225245,0.832050294337833,-6.79311819793655E-17));
#374=DIRECTION('center_axis',(0.,1.,0.));
#375=DIRECTION('ref_axis',(-1.,0.,0.));
#376=DIRECTION('center_axis',(0.,1.,0.));
#377=DIRECTION('ref_axis',(-1.,0.,0.));
#378=DIRECTION('center_axis',(0.,1.,0.));
#379=DIRECTION('ref_axis',(0.,0.,1.));
#380=DIRECTION('center_axis',(0.,1.,0.));
#381=DIRECTION('ref_axis',(-1.,0.,0.));
#382=DIRECTION('center_axis',(0.,1.,0.));
#383=DIRECTION('ref_axis',(-1.,0.,0.));
#384=DIRECTION('center_axis',(0.,1.,0.));
#385=DIRECTION('ref_axis',(0.,0.,1.));
#386=DIRECTION('center_axis',(0.,1.,0.));
#387=DIRECTION('ref_axis',(-1.,0.,0.));
#388=DIRECTION('center_axis',(0.,1.,0.));
#389=DIRECTION('ref_axis',(-1.,0.,0.));
#390=DIRECTION('center_axis',(-1.,0.,1.22464679914735E-16));
#391=DIRECTION('ref_axis',(-1.22464679914735E-16,0.,-1.));
#392=DIRECTION('center_axis',(0.,1.,0.));
#393=DIRECTION('ref_axis',(0.,0.,1.));
#394=DIRECTION('center_axis',(0.,1.,0.));
#395=DIRECTION('ref_axis',(-1.,0.,0.));
#396=DIRECTION('center_axis',(0.,1.,0.));
#397=DIRECTION('ref_axis',(-1.,0.,0.));
#398=DIRECTION('center_axis',(0.,1.,0.));
#399=DIRECTION('ref_axis',(-1.,0.,0.));
#400=DIRECTION('center_axis',(0.,1.,0.));
#401=DIRECTION('ref_axis',(-1.,0.,0.));
#402=DIRECTION('center_axis',(0.,1.,0.));
#403=DIRECTION('ref_axis',(-1.,0.,0.));
#404=DIRECTION('',(0.,-1.,0.));
#405=DIRECTION('center_axis',(0.,-1.,0.));
#406=DIRECTION('ref_axis',(-1.,0.,0.));
#407=DIRECTION('',(-0.707106781186468,0.707106781186628,-8.65956056235395E-17));
#408=DIRECTION('center_axis',(0.,1.,0.));
#409=DIRECTION('ref_axis',(0.,0.,1.));
#410=CARTESIAN_POINT('',(0.,0.,0.));
#411=CARTESIAN_POINT('Origin',(0.,43.9000000000001,0.));
#412=CARTESIAN_POINT('',(1.5,43.8000000000001,-1.83697019872103E-16));
#413=CARTESIAN_POINT('',(-1.5,43.8000000000001,1.83697019872102E-16));
#414=CARTESIAN_POINT('Origin',(0.,43.8000000000001,0.));
#415=CARTESIAN_POINT('',(-1.7,44.0000000000001,2.0819E-16));
#416=CARTESIAN_POINT('',(-1.6,43.9000000000001,1.95943487863577E-16));
#417=CARTESIAN_POINT('Origin',(0.,44.0000000000001,0.));
#418=CARTESIAN_POINT('Origin',(0.,43.8000000000001,0.));
#419=CARTESIAN_POINT('Origin',(-2.75000000000011,44.0000000000001,0.));
#420=CARTESIAN_POINT('',(-4.00000000000023,44.0000000000001,0.));
#421=CARTESIAN_POINT('',(4.00000000000023,44.0000000000001,4.8985871965897E-16));
#422=CARTESIAN_POINT('Origin',(0.,44.0000000000001,0.));
#423=CARTESIAN_POINT('Origin',(0.,44.0000000000001,0.));
#424=CARTESIAN_POINT('Origin',(0.,35.0000000000001,0.));
#425=CARTESIAN_POINT('',(-1.5,26.0000000000001,0.));
#426=CARTESIAN_POINT('',(1.5,26.0000000000001,-1.83697019872103E-16));
#427=CARTESIAN_POINT('Origin',(0.,26.0000000000001,0.));
#428=CARTESIAN_POINT('Origin',(0.,26.0000000000001,0.));
#429=CARTESIAN_POINT('',(1.5,35.0000000000001,-1.83697019872103E-16));
#430=CARTESIAN_POINT('Origin',(-11.5,-2.842171E-14,0.));
#431=CARTESIAN_POINT('',(-23.,-5.684342E-14,0.));
#432=CARTESIAN_POINT('',(23.,-5.67948466034807E-14,-2.81668763803891E-15));
#433=CARTESIAN_POINT('Origin',(0.,-5.684342E-14,0.));
#434=CARTESIAN_POINT('Origin',(0.,-5.684342E-14,0.));
#435=CARTESIAN_POINT('Origin',(0.,0.249999999999943,0.));
#436=CARTESIAN_POINT('',(-23.,0.499999999999943,0.));
#437=CARTESIAN_POINT('',(23.,0.499999999999943,-2.81668763803891E-15));
#438=CARTESIAN_POINT('Origin',(0.,0.499999999999943,0.));
#439=CARTESIAN_POINT('Origin',(0.,0.499999999999943,0.));
#440=CARTESIAN_POINT('',(23.,0.249999999999943,-2.81668763803891E-15));
#441=CARTESIAN_POINT('Origin',(0.,7.25,0.));
#442=CARTESIAN_POINT('',(12.,14.0000000000001,1.46957615897682E-15));
#443=CARTESIAN_POINT('',(17.5,7.25,2.14313189850787E-15));
#444=CARTESIAN_POINT('',(-12.,14.0000000000001,0.));
#445=CARTESIAN_POINT('Origin',(0.,14.0000000000001,0.));
#446=CARTESIAN_POINT('Origin',(0.,14.0000000000001,0.));
#447=CARTESIAN_POINT('Origin',(0.,18.5000000000001,0.));
#448=CARTESIAN_POINT('',(-12.,23.0000000000001,0.));
#449=CARTESIAN_POINT('',(12.,23.0000000000001,-1.46957615897682E-15));
#450=CARTESIAN_POINT('Origin',(0.,23.0000000000001,0.));
#451=CARTESIAN_POINT('Origin',(0.,23.0000000000001,0.));
#452=CARTESIAN_POINT('',(12.,18.5000000000001,-1.46957615897682E-15));
#453=CARTESIAN_POINT('Origin',(0.,24.5000000000001,0.));
#454=CARTESIAN_POINT('',(9.99999999999994,26.0000000000001,1.22464679914735E-15));
#455=CARTESIAN_POINT('',(11.,24.5000000000001,1.34711147906209E-15));
#456=CARTESIAN_POINT('',(-9.99999999999992,26.0000000000001,0.));
#457=CARTESIAN_POINT('Origin',(0.,26.0000000000001,0.));
#458=CARTESIAN_POINT('Origin',(0.,26.0000000000001,0.));
#459=CARTESIAN_POINT('Origin',(-9.49999999999996,26.0000000000001,0.));
#460=CARTESIAN_POINT('',(-9.,26.0000000000001,0.));
#461=CARTESIAN_POINT('',(-1.10218211923262E-15,26.0000000000001,-9.));
#462=CARTESIAN_POINT('Origin',(0.,26.0000000000001,0.));
#463=CARTESIAN_POINT('Origin',(0.,26.0000000000001,0.));
#464=CARTESIAN_POINT('Origin',(0.,26.0000000000001,0.));
#465=CARTESIAN_POINT('',(-7.,26.0000000000001,0.));
#466=CARTESIAN_POINT('',(-8.57252759403147E-16,26.0000000000001,-7.));
#467=CARTESIAN_POINT('Origin',(0.,26.0000000000001,0.));
#468=CARTESIAN_POINT('Origin',(0.,26.0000000000001,0.));
#469=CARTESIAN_POINT('Origin',(-9.79717439317883E-16,26.0000000000001,-8.));
#470=CARTESIAN_POINT('Origin',(-6.,26.0000000000001,0.));
#471=CARTESIAN_POINT('',(-5.,26.0000000000001,0.));
#472=CARTESIAN_POINT('',(5.,26.0000000000001,-6.12323399573677E-16));
#473=CARTESIAN_POINT('Origin',(0.,26.0000000000001,0.));
#474=CARTESIAN_POINT('Origin',(0.,26.0000000000001,0.));
#475=CARTESIAN_POINT('Origin',(0.,34.5000000000001,0.));
#476=CARTESIAN_POINT('',(-5.,43.0000000000001,0.));
#477=CARTESIAN_POINT('',(5.,43.0000000000001,-6.12323399573677E-16));
#478=CARTESIAN_POINT('Origin',(0.,43.0000000000001,0.));
#479=CARTESIAN_POINT('Origin',(0.,43.0000000000001,0.));
#480=CARTESIAN_POINT('',(5.,34.5000000000001,-6.12323399573677E-16));
#481=CARTESIAN_POINT('Origin',(0.,43.5000000000001,0.));
#482=CARTESIAN_POINT('',(4.50000000000012,43.5000000000001,5.51091059616324E-16));
#483=CARTESIAN_POINT('Origin',(-0.75,26.0000000000001,0.));
#484=UNCERTAINTY_MEASURE_WITH_UNIT(LENGTH_MEASURE(0.01),#488,
'DISTANCE_ACCURACY_VALUE',
'Maximum model space distance between geometric entities at asserted c
onnectivities');
#485=UNCERTAINTY_MEASURE_WITH_UNIT(LENGTH_MEASURE(0.01),#488,
'DISTANCE_ACCURACY_VALUE',
'Maximum model space distance between geometric entities at asserted c
onnectivities');
#486=(
GEOMETRIC_REPRESENTATION_CONTEXT(3)
GLOBAL_UNCERTAINTY_ASSIGNED_CONTEXT((#484))
GLOBAL_UNIT_ASSIGNED_CONTEXT((#488,#490,#491))
REPRESENTATION_CONTEXT('','3D')
);
#487=(
GEOMETRIC_REPRESENTATION_CONTEXT(3)
GLOBAL_UNCERTAINTY_ASSIGNED_CONTEXT((#485))
GLOBAL_UNIT_ASSIGNED_CONTEXT((#488,#490,#491))
REPRESENTATION_CONTEXT('','3D')
);
#488=(
LENGTH_UNIT()
NAMED_UNIT(*)
SI_UNIT(.MILLI.,.METRE.)
);
#489=(
LENGTH_UNIT()
NAMED_UNIT(*)
SI_UNIT(.CENTI.,.METRE.)
);
#490=(
NAMED_UNIT(*)
PLANE_ANGLE_UNIT()
SI_UNIT($,.RADIAN.)
);
#491=(
NAMED_UNIT(*)
SI_UNIT($,.STERADIAN.)
SOLID_ANGLE_UNIT()
);
#492=SHAPE_DEFINITION_REPRESENTATION(#493,#494);
#493=PRODUCT_DEFINITION_SHAPE('',$,#496);
#494=SHAPE_REPRESENTATION('',(#279),#486);
#495=DESIGN_CONTEXT('part definition',#500,'design');
#496=PRODUCT_DEFINITION('vsa46m10nit','vsa46m10nit',#497,#495);
#497=PRODUCT_DEFINITION_FORMATION('',$,#502);
#498=PRODUCT_RELATED_PRODUCT_CATEGORY('vsa46m10nit','vsa46m10nit',(#502));
#499=APPLICATION_PROTOCOL_DEFINITION('international standard',
'ap203_configuration_controlled_3d_design_of_mechanical_parts_and_asse
mblies_mim_lf',2004,#500);
#500=APPLICATION_CONTEXT(
'Configuration Controlled 3D Design of Mechanical Parts and Assemblies');
#501=MECHANICAL_CONTEXT('part definition',#500,'mechanical');
#502=PRODUCT('vsa46m10nit','vsa46m10nit',$,(#501));
#503=PRESENTATION_STYLE_ASSIGNMENT((#505));
#504=PRESENTATION_STYLE_ASSIGNMENT((#506));
#505=SURFACE_STYLE_USAGE(.BOTH.,#511);
#506=SURFACE_STYLE_USAGE(.BOTH.,#512);
#507=SURFACE_STYLE_RENDERING_WITH_PROPERTIES($,#519,(#509));
#508=SURFACE_STYLE_RENDERING_WITH_PROPERTIES($,#520,(#510));
#509=SURFACE_STYLE_TRANSPARENT(0.);
#510=SURFACE_STYLE_TRANSPARENT(0.);
#511=SURFACE_SIDE_STYLE('',(#513,#507));
#512=SURFACE_SIDE_STYLE('',(#514,#508));
#513=SURFACE_STYLE_FILL_AREA(#515);
#514=SURFACE_STYLE_FILL_AREA(#516);
#515=FILL_AREA_STYLE('',(#517));
#516=FILL_AREA_STYLE('',(#518));
#517=FILL_AREA_STYLE_COLOUR('',#519);
#518=FILL_AREA_STYLE_COLOUR('',#520);
#519=COLOUR_RGB('',0.32156862745098,0.32156862745098,0.32156862745098);
#520=COLOUR_RGB('',0.745098039215686,0.737254901960784,0.729411764705882);
ENDSEC;
END-ISO-10303-21;
