ISO-10303-21;
HEADER;
/* Generated by software containing ST-Developer
 * from STEP Tools, Inc. (www.steptools.com) 
 */
/* OPTION: strings as raw bytes, not using required /X/ escapes */

FILE_DESCRIPTION(
/* description */ ('Unknown'),
/* implementation_level */ '2;1');

FILE_NAME(
/* name */ '050001 - 1SBCV2',
/* time_stamp */ '2016-08-24T09:52:48+02:00',
/* author */ ('Unknown'),
/* organization */ ('Unknown'),
/* preprocessor_version */ 'ST-DEVELOPER v16.7',
/* originating_system */ 'DEX',
/* authorisation */ $);

FILE_SCHEMA (('AUTOMOTIVE_DESIGN {1 0 10303 214 3 1 1}'));
ENDSEC;

DATA;
#10=PROPERTY_DEFINITION_REPRESENTATION(#14,#12);
#11=PROPERTY_DEFINITION_REPRESENTATION(#15,#13);
#12=REPRESENTATION('',(#16),#519);
#13=REPRESENTATION('',(#17),#519);
#14=PROPERTY_DEFINITION('pmi validation property','',#524);
#15=PROPERTY_DEFINITION('pmi validation property','',#524);
#16=VALUE_REPRESENTATION_ITEM('number of annotations',COUNT_MEASURE(0.));
#17=VALUE_REPRESENTATION_ITEM('number of views',COUNT_MEASURE(0.));
#18=SHAPE_REPRESENTATION_RELATIONSHIP('','',#351,#19);
#19=ADVANCED_BREP_SHAPE_REPRESENTATION('',(#349),#519);
#20=ORIENTED_CLOSED_SHELL('',*,#348,.F.);
#21=CONICAL_SURFACE('',#375,10.515,0.785398163397445);
#22=CONICAL_SURFACE('',#376,9.315,0.785398163397434);
#23=COLOUR_RGB('',0.396078497171402,0.941176474094391,0.450980395078659);
#24=PLANE('',#364);
#25=PLANE('',#370);
#26=SPHERICAL_SURFACE('',#358,150.);
#27=SPHERICAL_SURFACE('',#360,150.);
#28=SPHERICAL_SURFACE('',#377,148.);
#29=SPHERICAL_SURFACE('',#382,148.);
#30=TOROIDAL_SURFACE('',#356,36.,7.00000000000002);
#31=TOROIDAL_SURFACE('',#363,36.,7.00000000000002);
#32=TOROIDAL_SURFACE('',#380,36.,5.00000000000002);
#33=TOROIDAL_SURFACE('',#385,36.,5.00000000000002);
#34=ORIENTED_EDGE('',*,*,#70,.T.);
#35=ORIENTED_EDGE('',*,*,#71,.F.);
#36=ORIENTED_EDGE('',*,*,#72,.T.);
#37=ORIENTED_EDGE('',*,*,#70,.F.);
#38=ORIENTED_EDGE('',*,*,#73,.F.);
#39=ORIENTED_EDGE('',*,*,#72,.F.);
#40=ORIENTED_EDGE('',*,*,#74,.T.);
#41=ORIENTED_EDGE('',*,*,#75,.F.);
#42=ORIENTED_EDGE('',*,*,#71,.T.);
#43=ORIENTED_EDGE('',*,*,#74,.F.);
#44=ORIENTED_EDGE('',*,*,#76,.T.);
#45=ORIENTED_EDGE('',*,*,#77,.F.);
#46=ORIENTED_EDGE('',*,*,#75,.T.);
#47=ORIENTED_EDGE('',*,*,#77,.T.);
#48=ORIENTED_EDGE('',*,*,#73,.T.);
#49=ORIENTED_EDGE('',*,*,#78,.F.);
#50=ORIENTED_EDGE('',*,*,#79,.T.);
#51=ORIENTED_EDGE('',*,*,#78,.T.);
#52=ORIENTED_EDGE('',*,*,#80,.T.);
#53=ORIENTED_EDGE('',*,*,#81,.T.);
#54=ORIENTED_EDGE('',*,*,#80,.F.);
#55=ORIENTED_EDGE('',*,*,#76,.F.);
#56=ORIENTED_EDGE('',*,*,#79,.F.);
#57=ORIENTED_EDGE('',*,*,#81,.F.);
#58=ORIENTED_EDGE('',*,*,#82,.F.);
#59=ORIENTED_EDGE('',*,*,#83,.F.);
#60=ORIENTED_EDGE('',*,*,#83,.T.);
#61=ORIENTED_EDGE('',*,*,#84,.F.);
#62=ORIENTED_EDGE('',*,*,#85,.F.);
#63=ORIENTED_EDGE('',*,*,#86,.T.);
#64=ORIENTED_EDGE('',*,*,#87,.T.);
#65=ORIENTED_EDGE('',*,*,#86,.F.);
#66=ORIENTED_EDGE('',*,*,#84,.T.);
#67=ORIENTED_EDGE('',*,*,#87,.F.);
#68=ORIENTED_EDGE('',*,*,#82,.T.);
#69=ORIENTED_EDGE('',*,*,#85,.T.);
#70=EDGE_CURVE('',#88,#88,#106,.T.);
#71=EDGE_CURVE('',#89,#89,#107,.T.);
#72=EDGE_CURVE('',#90,#90,#108,.T.);
#73=EDGE_CURVE('',#91,#91,#109,.T.);
#74=EDGE_CURVE('',#92,#92,#110,.T.);
#75=EDGE_CURVE('',#93,#93,#111,.T.);
#76=EDGE_CURVE('',#94,#94,#112,.T.);
#77=EDGE_CURVE('',#95,#95,#113,.T.);
#78=EDGE_CURVE('',#96,#96,#114,.T.);
#79=EDGE_CURVE('',#97,#97,#115,.F.);
#80=EDGE_CURVE('',#98,#98,#116,.F.);
#81=EDGE_CURVE('',#99,#99,#117,.T.);
#82=EDGE_CURVE('',#100,#100,#118,.T.);
#83=EDGE_CURVE('',#101,#101,#119,.T.);
#84=EDGE_CURVE('',#102,#102,#120,.T.);
#85=EDGE_CURVE('',#103,#103,#121,.T.);
#86=EDGE_CURVE('',#104,#104,#122,.T.);
#87=EDGE_CURVE('',#105,#105,#123,.T.);
#88=VERTEX_POINT('',#466);
#89=VERTEX_POINT('',#468);
#90=VERTEX_POINT('',#471);
#91=VERTEX_POINT('',#474);
#92=VERTEX_POINT('',#477);
#93=VERTEX_POINT('',#479);
#94=VERTEX_POINT('',#483);
#95=VERTEX_POINT('',#485);
#96=VERTEX_POINT('',#489);
#97=VERTEX_POINT('',#492);
#98=VERTEX_POINT('',#495);
#99=VERTEX_POINT('',#497);
#100=VERTEX_POINT('',#502);
#101=VERTEX_POINT('',#504);
#102=VERTEX_POINT('',#507);
#103=VERTEX_POINT('',#510);
#104=VERTEX_POINT('',#512);
#105=VERTEX_POINT('',#515);
#106=CIRCLE('',#354,43.);
#107=CIRCLE('',#355,43.);
#108=CIRCLE('',#357,37.7622377622377);
#109=CIRCLE('',#359,14.);
#110=CIRCLE('',#361,37.7622377622378);
#111=CIRCLE('',#362,14.);
#112=CIRCLE('',#365,10.515);
#113=CIRCLE('',#366,14.);
#114=CIRCLE('',#369,14.);
#115=CIRCLE('',#371,10.515);
#116=CIRCLE('',#373,9.315);
#117=CIRCLE('',#374,9.315);
#118=CIRCLE('',#378,14.);
#119=CIRCLE('',#379,37.2587412587412);
#120=CIRCLE('',#381,41.);
#121=CIRCLE('',#383,14.);
#122=CIRCLE('',#384,37.2587412587413);
#123=CIRCLE('',#386,41.);
#124=EDGE_LOOP('',(#34));
#125=EDGE_LOOP('',(#35));
#126=EDGE_LOOP('',(#36));
#127=EDGE_LOOP('',(#37));
#128=EDGE_LOOP('',(#38));
#129=EDGE_LOOP('',(#39));
#130=EDGE_LOOP('',(#40));
#131=EDGE_LOOP('',(#41));
#132=EDGE_LOOP('',(#42));
#133=EDGE_LOOP('',(#43));
#134=EDGE_LOOP('',(#44));
#135=EDGE_LOOP('',(#45));
#136=EDGE_LOOP('',(#46));
#137=EDGE_LOOP('',(#47));
#138=EDGE_LOOP('',(#48));
#139=EDGE_LOOP('',(#49));
#140=EDGE_LOOP('',(#50));
#141=EDGE_LOOP('',(#51));
#142=EDGE_LOOP('',(#52));
#143=EDGE_LOOP('',(#53));
#144=EDGE_LOOP('',(#54));
#145=EDGE_LOOP('',(#55));
#146=EDGE_LOOP('',(#56));
#147=EDGE_LOOP('',(#57));
#148=EDGE_LOOP('',(#58));
#149=EDGE_LOOP('',(#59));
#150=EDGE_LOOP('',(#60));
#151=EDGE_LOOP('',(#61));
#152=EDGE_LOOP('',(#62));
#153=EDGE_LOOP('',(#63));
#154=EDGE_LOOP('',(#64));
#155=EDGE_LOOP('',(#65));
#156=EDGE_LOOP('',(#66));
#157=EDGE_LOOP('',(#67));
#158=EDGE_LOOP('',(#68));
#159=EDGE_LOOP('',(#69));
#160=FACE_BOUND('',#124,.T.);
#161=FACE_BOUND('',#125,.T.);
#162=FACE_BOUND('',#126,.T.);
#163=FACE_BOUND('',#127,.T.);
#164=FACE_BOUND('',#128,.T.);
#165=FACE_BOUND('',#129,.T.);
#166=FACE_BOUND('',#130,.T.);
#167=FACE_BOUND('',#131,.T.);
#168=FACE_BOUND('',#132,.T.);
#169=FACE_BOUND('',#133,.T.);
#170=FACE_BOUND('',#134,.T.);
#171=FACE_BOUND('',#135,.T.);
#172=FACE_BOUND('',#136,.T.);
#173=FACE_BOUND('',#137,.T.);
#174=FACE_BOUND('',#138,.T.);
#175=FACE_BOUND('',#139,.T.);
#176=FACE_BOUND('',#140,.T.);
#177=FACE_BOUND('',#141,.T.);
#178=FACE_BOUND('',#142,.T.);
#179=FACE_BOUND('',#143,.T.);
#180=FACE_BOUND('',#144,.T.);
#181=FACE_BOUND('',#145,.T.);
#182=FACE_BOUND('',#146,.T.);
#183=FACE_BOUND('',#147,.T.);
#184=FACE_BOUND('',#148,.T.);
#185=FACE_BOUND('',#149,.T.);
#186=FACE_BOUND('',#150,.T.);
#187=FACE_BOUND('',#151,.T.);
#188=FACE_BOUND('',#152,.T.);
#189=FACE_BOUND('',#153,.T.);
#190=FACE_BOUND('',#154,.T.);
#191=FACE_BOUND('',#155,.T.);
#192=FACE_BOUND('',#156,.T.);
#193=FACE_BOUND('',#157,.T.);
#194=FACE_BOUND('',#158,.T.);
#195=FACE_BOUND('',#159,.T.);
#196=CYLINDRICAL_SURFACE('',#353,43.);
#197=CYLINDRICAL_SURFACE('',#367,14.);
#198=CYLINDRICAL_SURFACE('',#368,14.);
#199=CYLINDRICAL_SURFACE('',#372,9.315);
#200=CYLINDRICAL_SURFACE('',#387,41.);
#201=CYLINDRICAL_SURFACE('',#388,14.);
#202=STYLED_ITEM('',(#220),#329);
#203=STYLED_ITEM('',(#221),#330);
#204=STYLED_ITEM('',(#222),#331);
#205=STYLED_ITEM('',(#223),#332);
#206=STYLED_ITEM('',(#224),#333);
#207=STYLED_ITEM('',(#225),#334);
#208=STYLED_ITEM('',(#226),#335);
#209=STYLED_ITEM('',(#227),#336);
#210=STYLED_ITEM('',(#228),#337);
#211=STYLED_ITEM('',(#229),#338);
#212=STYLED_ITEM('',(#230),#339);
#213=STYLED_ITEM('',(#231),#340);
#214=STYLED_ITEM('',(#232),#341);
#215=STYLED_ITEM('',(#233),#342);
#216=STYLED_ITEM('',(#234),#343);
#217=STYLED_ITEM('',(#235),#344);
#218=STYLED_ITEM('',(#236),#345);
#219=STYLED_ITEM('',(#237),#346);
#220=PRESENTATION_STYLE_ASSIGNMENT((#238));
#221=PRESENTATION_STYLE_ASSIGNMENT((#239));
#222=PRESENTATION_STYLE_ASSIGNMENT((#240));
#223=PRESENTATION_STYLE_ASSIGNMENT((#241));
#224=PRESENTATION_STYLE_ASSIGNMENT((#242));
#225=PRESENTATION_STYLE_ASSIGNMENT((#243));
#226=PRESENTATION_STYLE_ASSIGNMENT((#244));
#227=PRESENTATION_STYLE_ASSIGNMENT((#245));
#228=PRESENTATION_STYLE_ASSIGNMENT((#246));
#229=PRESENTATION_STYLE_ASSIGNMENT((#247));
#230=PRESENTATION_STYLE_ASSIGNMENT((#248));
#231=PRESENTATION_STYLE_ASSIGNMENT((#249));
#232=PRESENTATION_STYLE_ASSIGNMENT((#250));
#233=PRESENTATION_STYLE_ASSIGNMENT((#251));
#234=PRESENTATION_STYLE_ASSIGNMENT((#252));
#235=PRESENTATION_STYLE_ASSIGNMENT((#253));
#236=PRESENTATION_STYLE_ASSIGNMENT((#254));
#237=PRESENTATION_STYLE_ASSIGNMENT((#255));
#238=SURFACE_STYLE_USAGE(.BOTH.,#256);
#239=SURFACE_STYLE_USAGE(.BOTH.,#257);
#240=SURFACE_STYLE_USAGE(.BOTH.,#258);
#241=SURFACE_STYLE_USAGE(.BOTH.,#259);
#242=SURFACE_STYLE_USAGE(.BOTH.,#260);
#243=SURFACE_STYLE_USAGE(.BOTH.,#261);
#244=SURFACE_STYLE_USAGE(.BOTH.,#262);
#245=SURFACE_STYLE_USAGE(.BOTH.,#263);
#246=SURFACE_STYLE_USAGE(.BOTH.,#264);
#247=SURFACE_STYLE_USAGE(.BOTH.,#265);
#248=SURFACE_STYLE_USAGE(.BOTH.,#266);
#249=SURFACE_STYLE_USAGE(.BOTH.,#267);
#250=SURFACE_STYLE_USAGE(.BOTH.,#268);
#251=SURFACE_STYLE_USAGE(.BOTH.,#269);
#252=SURFACE_STYLE_USAGE(.BOTH.,#270);
#253=SURFACE_STYLE_USAGE(.BOTH.,#271);
#254=SURFACE_STYLE_USAGE(.BOTH.,#272);
#255=SURFACE_STYLE_USAGE(.BOTH.,#273);
#256=SURFACE_SIDE_STYLE('',(#274));
#257=SURFACE_SIDE_STYLE('',(#275));
#258=SURFACE_SIDE_STYLE('',(#276));
#259=SURFACE_SIDE_STYLE('',(#277));
#260=SURFACE_SIDE_STYLE('',(#278));
#261=SURFACE_SIDE_STYLE('',(#279));
#262=SURFACE_SIDE_STYLE('',(#280));
#263=SURFACE_SIDE_STYLE('',(#281));
#264=SURFACE_SIDE_STYLE('',(#282));
#265=SURFACE_SIDE_STYLE('',(#283));
#266=SURFACE_SIDE_STYLE('',(#284));
#267=SURFACE_SIDE_STYLE('',(#285));
#268=SURFACE_SIDE_STYLE('',(#286));
#269=SURFACE_SIDE_STYLE('',(#287));
#270=SURFACE_SIDE_STYLE('',(#288));
#271=SURFACE_SIDE_STYLE('',(#289));
#272=SURFACE_SIDE_STYLE('',(#290));
#273=SURFACE_SIDE_STYLE('',(#291));
#274=SURFACE_STYLE_FILL_AREA(#292);
#275=SURFACE_STYLE_FILL_AREA(#293);
#276=SURFACE_STYLE_FILL_AREA(#294);
#277=SURFACE_STYLE_FILL_AREA(#295);
#278=SURFACE_STYLE_FILL_AREA(#296);
#279=SURFACE_STYLE_FILL_AREA(#297);
#280=SURFACE_STYLE_FILL_AREA(#298);
#281=SURFACE_STYLE_FILL_AREA(#299);
#282=SURFACE_STYLE_FILL_AREA(#300);
#283=SURFACE_STYLE_FILL_AREA(#301);
#284=SURFACE_STYLE_FILL_AREA(#302);
#285=SURFACE_STYLE_FILL_AREA(#303);
#286=SURFACE_STYLE_FILL_AREA(#304);
#287=SURFACE_STYLE_FILL_AREA(#305);
#288=SURFACE_STYLE_FILL_AREA(#306);
#289=SURFACE_STYLE_FILL_AREA(#307);
#290=SURFACE_STYLE_FILL_AREA(#308);
#291=SURFACE_STYLE_FILL_AREA(#309);
#292=FILL_AREA_STYLE('',(#310));
#293=FILL_AREA_STYLE('',(#311));
#294=FILL_AREA_STYLE('',(#312));
#295=FILL_AREA_STYLE('',(#313));
#296=FILL_AREA_STYLE('',(#314));
#297=FILL_AREA_STYLE('',(#315));
#298=FILL_AREA_STYLE('',(#316));
#299=FILL_AREA_STYLE('',(#317));
#300=FILL_AREA_STYLE('',(#318));
#301=FILL_AREA_STYLE('',(#319));
#302=FILL_AREA_STYLE('',(#320));
#303=FILL_AREA_STYLE('',(#321));
#304=FILL_AREA_STYLE('',(#322));
#305=FILL_AREA_STYLE('',(#323));
#306=FILL_AREA_STYLE('',(#324));
#307=FILL_AREA_STYLE('',(#325));
#308=FILL_AREA_STYLE('',(#326));
#309=FILL_AREA_STYLE('',(#327));
#310=FILL_AREA_STYLE_COLOUR('',#328);
#311=FILL_AREA_STYLE_COLOUR('',#328);
#312=FILL_AREA_STYLE_COLOUR('',#328);
#313=FILL_AREA_STYLE_COLOUR('',#328);
#314=FILL_AREA_STYLE_COLOUR('',#328);
#315=FILL_AREA_STYLE_COLOUR('',#328);
#316=FILL_AREA_STYLE_COLOUR('',#328);
#317=FILL_AREA_STYLE_COLOUR('',#328);
#318=FILL_AREA_STYLE_COLOUR('',#328);
#319=FILL_AREA_STYLE_COLOUR('',#23);
#320=FILL_AREA_STYLE_COLOUR('',#328);
#321=FILL_AREA_STYLE_COLOUR('',#328);
#322=FILL_AREA_STYLE_COLOUR('',#328);
#323=FILL_AREA_STYLE_COLOUR('',#328);
#324=FILL_AREA_STYLE_COLOUR('',#328);
#325=FILL_AREA_STYLE_COLOUR('',#328);
#326=FILL_AREA_STYLE_COLOUR('',#328);
#327=FILL_AREA_STYLE_COLOUR('',#328);
#328=DRAUGHTING_PRE_DEFINED_COLOUR('blue');
#329=ADVANCED_FACE('',(#160,#161),#196,.T.);
#330=ADVANCED_FACE('',(#162,#163),#30,.T.);
#331=ADVANCED_FACE('',(#164,#165),#26,.T.);
#332=ADVANCED_FACE('',(#166,#167),#27,.T.);
#333=ADVANCED_FACE('',(#168,#169),#31,.T.);
#334=ADVANCED_FACE('',(#170,#171),#24,.F.);
#335=ADVANCED_FACE('',(#172,#173),#197,.T.);
#336=ADVANCED_FACE('',(#174,#175),#198,.T.);
#337=ADVANCED_FACE('',(#176,#177),#25,.T.);
#338=ADVANCED_FACE('',(#178,#179),#199,.F.);
#339=ADVANCED_FACE('',(#180,#181),#21,.F.);
#340=ADVANCED_FACE('',(#182,#183),#22,.F.);
#341=ADVANCED_FACE('',(#184,#185),#28,.F.);
#342=ADVANCED_FACE('',(#186,#187),#32,.F.);
#343=ADVANCED_FACE('',(#188,#189),#29,.F.);
#344=ADVANCED_FACE('',(#190,#191),#33,.F.);
#345=ADVANCED_FACE('',(#192,#193),#200,.F.);
#346=ADVANCED_FACE('',(#194,#195),#201,.T.);
#347=CLOSED_SHELL('',(#329,#330,#331,#332,#333,#334,#335,#336,#337,#338,
#339,#340));
#348=CLOSED_SHELL('',(#341,#342,#343,#344,#345,#346));
#349=BREP_WITH_VOIDS('',#347,(#20));
#350=SHAPE_DEFINITION_REPRESENTATION(#524,#351);
#351=SHAPE_REPRESENTATION('050001 - 1SBCV2',(#352),#519);
#352=AXIS2_PLACEMENT_3D('',#463,#389,#390);
#353=AXIS2_PLACEMENT_3D('',#464,#391,#392);
#354=AXIS2_PLACEMENT_3D('',#465,#393,#394);
#355=AXIS2_PLACEMENT_3D('',#467,#395,#396);
#356=AXIS2_PLACEMENT_3D('',#469,#397,#398);
#357=AXIS2_PLACEMENT_3D('',#470,#399,#400);
#358=AXIS2_PLACEMENT_3D('',#472,#401,#402);
#359=AXIS2_PLACEMENT_3D('',#473,#403,#404);
#360=AXIS2_PLACEMENT_3D('',#475,#405,#406);
#361=AXIS2_PLACEMENT_3D('',#476,#407,#408);
#362=AXIS2_PLACEMENT_3D('',#478,#409,#410);
#363=AXIS2_PLACEMENT_3D('',#480,#411,#412);
#364=AXIS2_PLACEMENT_3D('',#481,#413,#414);
#365=AXIS2_PLACEMENT_3D('',#482,#415,#416);
#366=AXIS2_PLACEMENT_3D('',#484,#417,#418);
#367=AXIS2_PLACEMENT_3D('',#486,#419,#420);
#368=AXIS2_PLACEMENT_3D('',#487,#421,#422);
#369=AXIS2_PLACEMENT_3D('',#488,#423,#424);
#370=AXIS2_PLACEMENT_3D('',#490,#425,#426);
#371=AXIS2_PLACEMENT_3D('',#491,#427,#428);
#372=AXIS2_PLACEMENT_3D('',#493,#429,#430);
#373=AXIS2_PLACEMENT_3D('',#494,#431,#432);
#374=AXIS2_PLACEMENT_3D('',#496,#433,#434);
#375=AXIS2_PLACEMENT_3D('',#498,#435,#436);
#376=AXIS2_PLACEMENT_3D('',#499,#437,#438);
#377=AXIS2_PLACEMENT_3D('',#500,#439,#440);
#378=AXIS2_PLACEMENT_3D('',#501,#441,#442);
#379=AXIS2_PLACEMENT_3D('',#503,#443,#444);
#380=AXIS2_PLACEMENT_3D('',#505,#445,#446);
#381=AXIS2_PLACEMENT_3D('',#506,#447,#448);
#382=AXIS2_PLACEMENT_3D('',#508,#449,#450);
#383=AXIS2_PLACEMENT_3D('',#509,#451,#452);
#384=AXIS2_PLACEMENT_3D('',#511,#453,#454);
#385=AXIS2_PLACEMENT_3D('',#513,#455,#456);
#386=AXIS2_PLACEMENT_3D('',#514,#457,#458);
#387=AXIS2_PLACEMENT_3D('',#516,#459,#460);
#388=AXIS2_PLACEMENT_3D('',#517,#461,#462);
#389=DIRECTION('',(0.,0.,1.));
#390=DIRECTION('',(1.,0.,0.));
#391=DIRECTION('',(0.,1.,0.));
#392=DIRECTION('',(0.,0.,1.));
#393=DIRECTION('',(-6.12303176911189E-17,-1.,-6.12303176911189E-17));
#394=DIRECTION('',(0.,6.12303176911189E-17,-1.));
#395=DIRECTION('',(6.12303176911189E-17,-1.,6.12303176911189E-17));
#396=DIRECTION('',(0.,-6.12303176911189E-17,-1.));
#397=DIRECTION('',(-6.12303176911189E-17,-1.,-6.12303176911189E-17));
#398=DIRECTION('',(0.,6.12303176911189E-17,-1.));
#399=DIRECTION('',(-6.12303176911189E-17,-1.,-6.12303176911189E-17));
#400=DIRECTION('',(0.,6.12303176911189E-17,-1.));
#401=DIRECTION('',(-6.12303176911189E-17,-1.,-6.12303176911189E-17));
#402=DIRECTION('',(-3.74915180455534E-33,-6.12303176911189E-17,1.));
#403=DIRECTION('',(6.12303176911189E-17,1.,6.12303176911189E-17));
#404=DIRECTION('',(0.,-6.12303176911189E-17,1.));
#405=DIRECTION('',(6.12303176911189E-17,-1.,6.12303176911189E-17));
#406=DIRECTION('',(-3.74915180455534E-33,6.12303176911189E-17,1.));
#407=DIRECTION('',(6.12303176911189E-17,-1.,6.12303176911189E-17));
#408=DIRECTION('',(0.,-6.12303176911189E-17,-1.));
#409=DIRECTION('',(6.12303176911189E-17,-1.,6.12303176911189E-17));
#410=DIRECTION('',(0.,-6.12303176911189E-17,-1.));
#411=DIRECTION('',(6.12303176911189E-17,-1.,6.12303176911189E-17));
#412=DIRECTION('',(0.,-6.12303176911189E-17,-1.));
#413=DIRECTION('',(0.,1.,0.));
#414=DIRECTION('',(0.,0.,1.));
#415=DIRECTION('',(0.,1.,0.));
#416=DIRECTION('',(0.,0.,1.));
#417=DIRECTION('',(0.,1.,0.));
#418=DIRECTION('',(1.,0.,0.));
#419=DIRECTION('',(0.,1.,0.));
#420=DIRECTION('',(0.,0.,1.));
#421=DIRECTION('',(0.,1.,0.));
#422=DIRECTION('',(0.,0.,1.));
#423=DIRECTION('',(0.,1.,0.));
#424=DIRECTION('',(1.,0.,0.));
#425=DIRECTION('',(0.,1.,0.));
#426=DIRECTION('',(0.,0.,1.));
#427=DIRECTION('',(0.,1.,0.));
#428=DIRECTION('',(0.,0.,1.));
#429=DIRECTION('',(0.,1.,0.));
#430=DIRECTION('',(0.,0.,1.));
#431=DIRECTION('',(0.,1.,0.));
#432=DIRECTION('',(0.,0.,1.));
#433=DIRECTION('',(0.,1.,0.));
#434=DIRECTION('',(0.,0.,1.));
#435=DIRECTION('',(0.,-1.,0.));
#436=DIRECTION('',(0.,0.,-1.));
#437=DIRECTION('',(0.,1.,0.));
#438=DIRECTION('',(0.,0.,1.));
#439=DIRECTION('',(6.12303176911189E-17,-1.,6.12303176911189E-17));
#440=DIRECTION('',(-3.74915180455534E-33,6.12303176911189E-17,1.));
#441=DIRECTION('',(0.,1.,0.));
#442=DIRECTION('',(0.,0.,1.));
#443=DIRECTION('',(6.12303176911189E-17,-1.,6.12303176911189E-17));
#444=DIRECTION('',(0.,-6.12303176911189E-17,-1.));
#445=DIRECTION('',(6.12303176911189E-17,-1.,6.12303176911189E-17));
#446=DIRECTION('',(0.,-6.12303176911189E-17,-1.));
#447=DIRECTION('',(6.12303176911189E-17,-1.,6.12303176911189E-17));
#448=DIRECTION('',(0.,-6.12303176911189E-17,-1.));
#449=DIRECTION('',(-6.12303176911189E-17,-1.,-6.12303176911189E-17));
#450=DIRECTION('',(-3.74915180455534E-33,-6.12303176911189E-17,1.));
#451=DIRECTION('',(0.,-1.,0.));
#452=DIRECTION('',(0.,0.,-1.));
#453=DIRECTION('',(-6.12303176911189E-17,-1.,-6.12303176911189E-17));
#454=DIRECTION('',(0.,6.12303176911189E-17,-1.));
#455=DIRECTION('',(-6.12303176911189E-17,-1.,-6.12303176911189E-17));
#456=DIRECTION('',(0.,6.12303176911189E-17,-1.));
#457=DIRECTION('',(-6.12303176911189E-17,-1.,-6.12303176911189E-17));
#458=DIRECTION('',(0.,6.12303176911189E-17,-1.));
#459=DIRECTION('',(0.,1.,0.));
#460=DIRECTION('',(0.,0.,1.));
#461=DIRECTION('',(0.,1.,0.));
#462=DIRECTION('',(0.,0.,1.));
#463=CARTESIAN_POINT('',(0.,0.,0.));
#464=CARTESIAN_POINT('',(0.,-25.,0.));
#465=CARTESIAN_POINT('',(5.45250630120139E-15,89.0491264263398,9.12632536266852E-15));
#466=CARTESIAN_POINT('',(5.45250630120139E-15,89.0491264263398,-43.));
#467=CARTESIAN_POINT('',(5.45250630120139E-15,-89.0491264263398,9.12632536266852E-15));
#468=CARTESIAN_POINT('',(5.45250630120139E-15,-89.0491264263398,-43.));
#469=CARTESIAN_POINT('',(5.45250630120139E-15,89.0491264263398,6.93889390390723E-15));
#470=CARTESIAN_POINT('',(5.86731410638215E-15,95.8236757153584,9.54113316784928E-15));
#471=CARTESIAN_POINT('',(5.86731410638215E-15,95.8236757153584,-37.7622377622377));
#472=CARTESIAN_POINT('',(-3.02142457606262E-15,-49.3452376207557,0.));
#473=CARTESIAN_POINT('',(0.,100.,0.));
#474=CARTESIAN_POINT('',(0.,100.,14.));
#475=CARTESIAN_POINT('',(-3.02142457606262E-15,49.3452376207557,0.));
#476=CARTESIAN_POINT('',(5.86731410638215E-15,-95.8236757153584,9.54113316784928E-15));
#477=CARTESIAN_POINT('',(5.86731410638215E-15,-95.8236757153584,-37.7622377622378));
#478=CARTESIAN_POINT('',(6.12303176911189E-15,-100.,9.79685083057902E-15));
#479=CARTESIAN_POINT('',(6.12303176911189E-15,-100.,-13.9999999999999));
#480=CARTESIAN_POINT('',(5.45250630120139E-15,-89.0491264263398,6.93889390390723E-15));
#481=CARTESIAN_POINT('',(0.,-112.5,0.));
#482=CARTESIAN_POINT('',(6.61287431064084E-15,-112.5,0.));
#483=CARTESIAN_POINT('',(6.61287431064084E-15,-112.5,10.515));
#484=CARTESIAN_POINT('',(0.,-112.5,0.));
#485=CARTESIAN_POINT('',(14.,-112.5,0.));
#486=CARTESIAN_POINT('',(0.,-112.5,0.));
#487=CARTESIAN_POINT('',(0.,-112.5,0.));
#488=CARTESIAN_POINT('',(0.,112.5,0.));
#489=CARTESIAN_POINT('',(14.,112.5,0.));
#490=CARTESIAN_POINT('',(0.,112.5,0.));
#491=CARTESIAN_POINT('',(6.61287431064084E-15,112.5,0.));
#492=CARTESIAN_POINT('',(6.61287431064084E-15,112.5,10.515));
#493=CARTESIAN_POINT('',(6.61287431064084E-15,-143.267472521429,0.));
#494=CARTESIAN_POINT('',(6.61287431064084E-15,-111.3,0.));
#495=CARTESIAN_POINT('',(6.61287431064084E-15,-111.3,9.315));
#496=CARTESIAN_POINT('',(6.61287431064084E-15,111.3,0.));
#497=CARTESIAN_POINT('',(6.61287431064084E-15,111.3,9.315));
#498=CARTESIAN_POINT('',(6.61287431064084E-15,-112.5,0.));
#499=CARTESIAN_POINT('',(6.61287431064084E-15,111.3,0.));
#500=CARTESIAN_POINT('',(-3.02142457606262E-15,49.3452376207557,0.));
#501=CARTESIAN_POINT('',(0.,-97.9911122729484,0.));
#502=CARTESIAN_POINT('',(0.,-97.9911122729484,14.));
#503=CARTESIAN_POINT('',(5.74879759061622E-15,-93.8880902042102,9.42261665208335E-15));
#504=CARTESIAN_POINT('',(5.74879759061622E-15,-93.8880902042102,-37.2587412587412));
#505=CARTESIAN_POINT('',(5.45250630120139E-15,-89.0491264263398,6.93889390390723E-15));
#506=CARTESIAN_POINT('',(5.45250630120139E-15,-89.0491264263398,9.12632536266852E-15));
#507=CARTESIAN_POINT('',(5.45250630120139E-15,-89.0491264263398,-41.));
#508=CARTESIAN_POINT('',(-3.02142457606262E-15,-49.3452376207557,0.));
#509=CARTESIAN_POINT('',(0.,97.9911122729484,0.));
#510=CARTESIAN_POINT('',(0.,97.9911122729484,-14.));
#511=CARTESIAN_POINT('',(5.74879759061622E-15,93.8880902042102,9.42261665208335E-15));
#512=CARTESIAN_POINT('',(5.74879759061622E-15,93.8880902042102,-37.2587412587413));
#513=CARTESIAN_POINT('',(5.45250630120139E-15,89.0491264263398,6.93889390390723E-15));
#514=CARTESIAN_POINT('',(5.45250630120139E-15,89.0491264263398,9.12632536266852E-15));
#515=CARTESIAN_POINT('',(5.45250630120139E-15,89.0491264263398,-41.));
#516=CARTESIAN_POINT('',(0.,-25.,0.));
#517=CARTESIAN_POINT('',(0.,-112.5,0.));
#518=MECHANICAL_DESIGN_GEOMETRIC_PRESENTATION_REPRESENTATION('',(#202,#203,
#204,#205,#206,#207,#208,#209,#210,#211,#212,#213,#214,#215,#216,#217,#218,
#219),#519);
#519=(
GEOMETRIC_REPRESENTATION_CONTEXT(3)
GLOBAL_UNCERTAINTY_ASSIGNED_CONTEXT((#520))
GLOBAL_UNIT_ASSIGNED_CONTEXT((#523,#522,#521))
REPRESENTATION_CONTEXT('050001 - 1SBCV2','TOP_LEVEL_ASSEMBLY_PART')
);
#520=UNCERTAINTY_MEASURE_WITH_UNIT(LENGTH_MEASURE(0.005),#523,
'DISTANCE_ACCURACY_VALUE','Maximum Tolerance applied to model');
#521=(
NAMED_UNIT(*)
SI_UNIT($,.STERADIAN.)
SOLID_ANGLE_UNIT()
);
#522=(
NAMED_UNIT(*)
PLANE_ANGLE_UNIT()
SI_UNIT($,.RADIAN.)
);
#523=(
LENGTH_UNIT()
NAMED_UNIT(*)
SI_UNIT(.MILLI.,.METRE.)
);
#524=PRODUCT_DEFINITION_SHAPE('','',#525);
#525=PRODUCT_DEFINITION('','',#527,#526);
#526=PRODUCT_DEFINITION_CONTEXT('',#533,'design');
#527=PRODUCT_DEFINITION_FORMATION_WITH_SPECIFIED_SOURCE('','',#529,
 .NOT_KNOWN.);
#528=PRODUCT_RELATED_PRODUCT_CATEGORY('','',(#529));
#529=PRODUCT('050001 - 1SBCV2','050001 - 1SBCV2','050001 - 1SBCV2',(#531));
#530=PRODUCT_CATEGORY('','');
#531=PRODUCT_CONTEXT('',#533,'mechanical');
#532=APPLICATION_PROTOCOL_DEFINITION('international standard',
'automotive_design',2010,#533);
#533=APPLICATION_CONTEXT(
'core data for automotive mechanical design processes');
ENDSEC;
END-ISO-10303-21;
