ISO-10303-21;
HEADER;
FILE_DESCRIPTION( ( 'STEP AP214' ), '1' );
FILE_NAME( 'C:/Users/azilaghe/AppData/Local/Temp/psolqas_17272_16.stp', '2020-12-01T17:14:32', ( 'License CC BY-ND 4.0' ), ( 'CADENAS' ), ' ', 'PARTsolutions', ' ' );
FILE_SCHEMA( ( 'AUTOMOTIVE_DESIGN { 1 0 10303 214 1 1 1 1 }' ) );
ENDSEC;
DATA;
#1 = MECHANICAL_DESIGN_GEOMETRIC_PRESENTATION_REPRESENTATION( ' ', ( #10, #11, #12, #13, #14, #15, #16, #17, #18, #19, #20, #21, #22, #23, #24, #25 ), #6 );
#2 = PRODUCT_DEFINITION_CONTEXT( '', #26, 'design' );
#3 = APPLICATION_PROTOCOL_DEFINITION( 'international standard', 'automotive_design', 2001, #26 );
#4 = PRODUCT_CATEGORY_RELATIONSHIP( 'NONE', 'NONE', #27, #28 );
#5 = SHAPE_DEFINITION_REPRESENTATION( #29, #30 );
#6 =  ( GEOMETRIC_REPRESENTATION_CONTEXT( 3 )GLOBAL_UNCERTAINTY_ASSIGNED_CONTEXT( ( #33 ) )GLOBAL_UNIT_ASSIGNED_CONTEXT( ( #35, #36, #37 ) )REPRESENTATION_CONTEXT( 'NONE', 'WORKSPACE' ) );
#10 = STYLED_ITEM( '', ( #39 ), #40 );
#11 = STYLED_ITEM( '', ( #41 ), #42 );
#12 = STYLED_ITEM( '', ( #43 ), #44 );
#13 = STYLED_ITEM( '', ( #45 ), #46 );
#14 = STYLED_ITEM( '', ( #47 ), #48 );
#15 = STYLED_ITEM( '', ( #49 ), #50 );
#16 = STYLED_ITEM( '', ( #51 ), #52 );
#17 = STYLED_ITEM( '', ( #53 ), #54 );
#18 = STYLED_ITEM( '', ( #55 ), #56 );
#19 = STYLED_ITEM( '', ( #57 ), #58 );
#20 = STYLED_ITEM( '', ( #59 ), #60 );
#21 = STYLED_ITEM( '', ( #61 ), #62 );
#22 = STYLED_ITEM( '', ( #63 ), #64 );
#23 = STYLED_ITEM( '', ( #65 ), #66 );
#24 = STYLED_ITEM( '', ( #67 ), #68 );
#25 = STYLED_ITEM( '', ( #69 ), #70 );
#26 = APPLICATION_CONTEXT( 'core data for automotive mechanical design processes' );
#27 = PRODUCT_CATEGORY( 'part', 'NONE' );
#28 = PRODUCT_RELATED_PRODUCT_CATEGORY( 'detail', ' ', ( #71 ) );
#29 = PRODUCT_DEFINITION_SHAPE( 'NONE', 'NONE', #72 );
#30 = ADVANCED_BREP_SHAPE_REPRESENTATION( 'NONE', ( #73, #74 ), #6 );
#33 = UNCERTAINTY_MEASURE_WITH_UNIT( LENGTH_MEASURE( 1.00000000000000E-06 ), #35, '', '' );
#35 =  ( CONVERSION_BASED_UNIT( 'METRE', #77 )LENGTH_UNIT(  )NAMED_UNIT( #80 ) );
#36 =  ( NAMED_UNIT( #82 )PLANE_ANGLE_UNIT(  )SI_UNIT( $, .RADIAN. ) );
#37 =  ( NAMED_UNIT( #82 )SI_UNIT( $, .STERADIAN. )SOLID_ANGLE_UNIT(  ) );
#39 = PRESENTATION_STYLE_ASSIGNMENT( ( #88 ) );
#40 = ADVANCED_FACE( 'NONE', ( #89 ), #90, .T. );
#41 = PRESENTATION_STYLE_ASSIGNMENT( ( #91 ) );
#42 = ADVANCED_FACE( 'NONE', ( #92, #93 ), #94, .T. );
#43 = PRESENTATION_STYLE_ASSIGNMENT( ( #95 ) );
#44 = ADVANCED_FACE( 'NONE', ( #96, #97 ), #98, .T. );
#45 = PRESENTATION_STYLE_ASSIGNMENT( ( #99 ) );
#46 = ADVANCED_FACE( 'NONE', ( #100, #101 ), #102, .T. );
#47 = PRESENTATION_STYLE_ASSIGNMENT( ( #103 ) );
#48 = ADVANCED_FACE( 'NONE', ( #104, #105 ), #106, .T. );
#49 = PRESENTATION_STYLE_ASSIGNMENT( ( #107 ) );
#50 = ADVANCED_FACE( 'NONE', ( #108, #109 ), #110, .T. );
#51 = PRESENTATION_STYLE_ASSIGNMENT( ( #111 ) );
#52 = ADVANCED_FACE( 'NONE', ( #112, #113 ), #114, .T. );
#53 = PRESENTATION_STYLE_ASSIGNMENT( ( #115 ) );
#54 = ADVANCED_FACE( 'NONE', ( #116, #117 ), #118, .F. );
#55 = PRESENTATION_STYLE_ASSIGNMENT( ( #119 ) );
#56 = ADVANCED_FACE( 'NONE', ( #120, #121 ), #122, .T. );
#57 = PRESENTATION_STYLE_ASSIGNMENT( ( #123 ) );
#58 = ADVANCED_FACE( 'NONE', ( #124, #125 ), #126, .T. );
#59 = PRESENTATION_STYLE_ASSIGNMENT( ( #127 ) );
#60 = ADVANCED_FACE( 'NONE', ( #128, #129 ), #130, .F. );
#61 = PRESENTATION_STYLE_ASSIGNMENT( ( #131 ) );
#62 = ADVANCED_FACE( 'NONE', ( #132, #133 ), #134, .T. );
#63 = PRESENTATION_STYLE_ASSIGNMENT( ( #135 ) );
#64 = ADVANCED_FACE( 'NONE', ( #136, #137 ), #138, .T. );
#65 = PRESENTATION_STYLE_ASSIGNMENT( ( #139 ) );
#66 = ADVANCED_FACE( 'NONE', ( #140, #141 ), #142, .F. );
#67 = PRESENTATION_STYLE_ASSIGNMENT( ( #143 ) );
#68 = ADVANCED_FACE( 'NONE', ( #144, #145 ), #146, .T. );
#69 = PRESENTATION_STYLE_ASSIGNMENT( ( #147 ) );
#70 = ADVANCED_FACE( 'NONE', ( #148, #149 ), #150, .T. );
#71 = PRODUCT( 'NONE', 'NONE', 'PART-NONE-DESC', ( #151 ) );
#72 = PRODUCT_DEFINITION( 'NONE', 'NONE', #152, #2 );
#73 = MANIFOLD_SOLID_BREP( 'NONE', #153 );
#74 = AXIS2_PLACEMENT_3D( '', #154, #155, #156 );
#77 = LENGTH_MEASURE_WITH_UNIT( LENGTH_MEASURE( 1.00000000000000 ), #157 );
#80 = DIMENSIONAL_EXPONENTS( 1.00000000000000, 0.000000000000000, 0.000000000000000, 0.000000000000000, 0.000000000000000, 0.000000000000000, 0.000000000000000 );
#82 = DIMENSIONAL_EXPONENTS( 0.000000000000000, 0.000000000000000, 0.000000000000000, 0.000000000000000, 0.000000000000000, 0.000000000000000, 0.000000000000000 );
#88 = SURFACE_STYLE_USAGE( .BOTH., #158 );
#89 = FACE_OUTER_BOUND( '', #159, .T. );
#90 = PLANE( '', #160 );
#91 = SURFACE_STYLE_USAGE( .BOTH., #161 );
#92 = FACE_OUTER_BOUND( '', #162, .T. );
#93 = FACE_BOUND( '', #163, .T. );
#94 = CONICAL_SURFACE( '', #164, 0.00800000000000000, 1.13446401380000 );
#95 = SURFACE_STYLE_USAGE( .BOTH., #165 );
#96 = FACE_OUTER_BOUND( '', #166, .T. );
#97 = FACE_BOUND( '', #167, .T. );
#98 = PLANE( '', #168 );
#99 = SURFACE_STYLE_USAGE( .BOTH., #169 );
#100 = FACE_OUTER_BOUND( '', #170, .T. );
#101 = FACE_BOUND( '', #171, .T. );
#102 = CONICAL_SURFACE( '', #172, 0.00750000000000000, 0.785398163400000 );
#103 = SURFACE_STYLE_USAGE( .BOTH., #173 );
#104 = FACE_OUTER_BOUND( '', #174, .T. );
#105 = FACE_BOUND( '', #175, .T. );
#106 = CONICAL_SURFACE( '', #176, 0.00800000000000000, 1.04719755120000 );
#107 = SURFACE_STYLE_USAGE( .BOTH., #177 );
#108 = FACE_OUTER_BOUND( '', #178, .T. );
#109 = FACE_OUTER_BOUND( '', #179, .T. );
#110 = CYLINDRICAL_SURFACE( '', #180, 0.00675000000000000 );
#111 = SURFACE_STYLE_USAGE( .BOTH., #181 );
#112 = FACE_OUTER_BOUND( '', #182, .T. );
#113 = FACE_OUTER_BOUND( '', #183, .T. );
#114 = CYLINDRICAL_SURFACE( '', #184, 0.00800000000000000 );
#115 = SURFACE_STYLE_USAGE( .BOTH., #185 );
#116 = FACE_OUTER_BOUND( '', #186, .T. );
#117 = FACE_BOUND( '', #187, .T. );
#118 = CONICAL_SURFACE( '', #188, 0.00650000000000000, 1.18682389140000 );
#119 = SURFACE_STYLE_USAGE( .BOTH., #189 );
#120 = FACE_OUTER_BOUND( '', #190, .T. );
#121 = FACE_OUTER_BOUND( '', #191, .T. );
#122 = CYLINDRICAL_SURFACE( '', #192, 0.00750000000000000 );
#123 = SURFACE_STYLE_USAGE( .BOTH., #193 );
#124 = FACE_OUTER_BOUND( '', #194, .T. );
#125 = FACE_BOUND( '', #195, .T. );
#126 = PLANE( '', #196 );
#127 = SURFACE_STYLE_USAGE( .BOTH., #197 );
#128 = FACE_OUTER_BOUND( '', #198, .T. );
#129 = FACE_BOUND( '', #199, .T. );
#130 = CONICAL_SURFACE( '', #200, 0.00700000000000000, 0.785398163400000 );
#131 = SURFACE_STYLE_USAGE( .BOTH., #201 );
#132 = FACE_OUTER_BOUND( '', #202, .T. );
#133 = FACE_BOUND( '', #203, .T. );
#134 = CONICAL_SURFACE( '', #204, 0.00675000000000000, 1.04719755120000 );
#135 = SURFACE_STYLE_USAGE( .BOTH., #205 );
#136 = FACE_OUTER_BOUND( '', #206, .T. );
#137 = FACE_BOUND( '', #207, .T. );
#138 = CONICAL_SURFACE( '', #208, 0.00800000000000000, 0.785398163400000 );
#139 = SURFACE_STYLE_USAGE( .BOTH., #209 );
#140 = FACE_OUTER_BOUND( '', #210, .T. );
#141 = FACE_OUTER_BOUND( '', #211, .T. );
#142 = CYLINDRICAL_SURFACE( '', #212, 0.00650000000000000 );
#143 = SURFACE_STYLE_USAGE( .BOTH., #213 );
#144 = FACE_OUTER_BOUND( '', #214, .T. );
#145 = FACE_OUTER_BOUND( '', #215, .T. );
#146 = CYLINDRICAL_SURFACE( '', #216, 0.00800000000000000 );
#147 = SURFACE_STYLE_USAGE( .BOTH., #217 );
#148 = FACE_OUTER_BOUND( '', #218, .T. );
#149 = FACE_OUTER_BOUND( '', #219, .T. );
#150 = CYLINDRICAL_SURFACE( '', #220, 0.00800000000000000 );
#151 = PRODUCT_CONTEXT( '', #26, 'mechanical' );
#152 = PRODUCT_DEFINITION_FORMATION_WITH_SPECIFIED_SOURCE( ' ', 'NONE', #71, .NOT_KNOWN. );
#153 = CLOSED_SHELL( '', ( #54, #66, #56, #50, #40, #46, #70, #42, #44, #64, #58, #48, #52, #62, #68, #60 ) );
#154 = CARTESIAN_POINT( '', ( 0.000000000000000, 0.000000000000000, 0.000000000000000 ) );
#155 = DIRECTION( '', ( 0.000000000000000, 0.000000000000000, 1.00000000000000 ) );
#156 = DIRECTION( '', ( 1.00000000000000, 0.000000000000000, 0.000000000000000 ) );
#157 =  ( LENGTH_UNIT(  )NAMED_UNIT( #80 )SI_UNIT( $, .METRE. ) );
#158 = SURFACE_SIDE_STYLE( '', ( #222 ) );
#159 = EDGE_LOOP( '', ( #223 ) );
#160 = AXIS2_PLACEMENT_3D( '', #224, #225, #226 );
#161 = SURFACE_SIDE_STYLE( '', ( #227 ) );
#162 = EDGE_LOOP( '', ( #228 ) );
#163 = EDGE_LOOP( '', ( #229 ) );
#164 = AXIS2_PLACEMENT_3D( '', #230, #231, #232 );
#165 = SURFACE_SIDE_STYLE( '', ( #233 ) );
#166 = EDGE_LOOP( '', ( #234 ) );
#167 = EDGE_LOOP( '', ( #235 ) );
#168 = AXIS2_PLACEMENT_3D( '', #236, #237, #238 );
#169 = SURFACE_SIDE_STYLE( '', ( #239 ) );
#170 = EDGE_LOOP( '', ( #240 ) );
#171 = EDGE_LOOP( '', ( #241 ) );
#172 = AXIS2_PLACEMENT_3D( '', #242, #243, #244 );
#173 = SURFACE_SIDE_STYLE( '', ( #245 ) );
#174 = EDGE_LOOP( '', ( #246 ) );
#175 = EDGE_LOOP( '', ( #247 ) );
#176 = AXIS2_PLACEMENT_3D( '', #248, #249, #250 );
#177 = SURFACE_SIDE_STYLE( '', ( #251 ) );
#178 = EDGE_LOOP( '', ( #252 ) );
#179 = EDGE_LOOP( '', ( #253 ) );
#180 = AXIS2_PLACEMENT_3D( '', #254, #255, #256 );
#181 = SURFACE_SIDE_STYLE( '', ( #257 ) );
#182 = EDGE_LOOP( '', ( #258 ) );
#183 = EDGE_LOOP( '', ( #259 ) );
#184 = AXIS2_PLACEMENT_3D( '', #260, #261, #262 );
#185 = SURFACE_SIDE_STYLE( '', ( #263 ) );
#186 = EDGE_LOOP( '', ( #264 ) );
#187 = VERTEX_LOOP( '', #265 );
#188 = AXIS2_PLACEMENT_3D( '', #266, #267, #268 );
#189 = SURFACE_SIDE_STYLE( '', ( #269 ) );
#190 = EDGE_LOOP( '', ( #270 ) );
#191 = EDGE_LOOP( '', ( #271 ) );
#192 = AXIS2_PLACEMENT_3D( '', #272, #273, #274 );
#193 = SURFACE_SIDE_STYLE( '', ( #275 ) );
#194 = EDGE_LOOP( '', ( #276 ) );
#195 = EDGE_LOOP( '', ( #277 ) );
#196 = AXIS2_PLACEMENT_3D( '', #278, #279, #280 );
#197 = SURFACE_SIDE_STYLE( '', ( #281 ) );
#198 = EDGE_LOOP( '', ( #282 ) );
#199 = EDGE_LOOP( '', ( #283 ) );
#200 = AXIS2_PLACEMENT_3D( '', #284, #285, #286 );
#201 = SURFACE_SIDE_STYLE( '', ( #287 ) );
#202 = EDGE_LOOP( '', ( #288 ) );
#203 = EDGE_LOOP( '', ( #289 ) );
#204 = AXIS2_PLACEMENT_3D( '', #290, #291, #292 );
#205 = SURFACE_SIDE_STYLE( '', ( #293 ) );
#206 = EDGE_LOOP( '', ( #294 ) );
#207 = EDGE_LOOP( '', ( #295 ) );
#208 = AXIS2_PLACEMENT_3D( '', #296, #297, #298 );
#209 = SURFACE_SIDE_STYLE( '', ( #299 ) );
#210 = EDGE_LOOP( '', ( #300 ) );
#211 = EDGE_LOOP( '', ( #301 ) );
#212 = AXIS2_PLACEMENT_3D( '', #302, #303, #304 );
#213 = SURFACE_SIDE_STYLE( '', ( #305 ) );
#214 = EDGE_LOOP( '', ( #306 ) );
#215 = EDGE_LOOP( '', ( #307 ) );
#216 = AXIS2_PLACEMENT_3D( '', #308, #309, #310 );
#217 = SURFACE_SIDE_STYLE( '', ( #311 ) );
#218 = EDGE_LOOP( '', ( #312 ) );
#219 = EDGE_LOOP( '', ( #313 ) );
#220 = AXIS2_PLACEMENT_3D( '', #314, #315, #316 );
#222 = SURFACE_STYLE_FILL_AREA( #317 );
#223 = ORIENTED_EDGE( '', *, *, #318, .F. );
#224 = CARTESIAN_POINT( '', ( 0.000000000000000, 0.0400000000000000, 0.000000000000000 ) );
#225 = DIRECTION( '', ( -0.000000000000000, 1.00000000000000, 0.000000000000000 ) );
#226 = DIRECTION( '', ( 1.00000000000000, 0.000000000000000, 0.000000000000000 ) );
#227 = SURFACE_STYLE_FILL_AREA( #319 );
#228 = ORIENTED_EDGE( '', *, *, #320, .F. );
#229 = ORIENTED_EDGE( '', *, *, #321, .T. );
#230 = CARTESIAN_POINT( '', ( 0.000000000000000, 0.00850000000000000, 0.000000000000000 ) );
#231 = DIRECTION( '', ( 0.000000000000000, -1.00000000000000, -0.000000000000000 ) );
#232 = DIRECTION( '', ( 0.000000000000000, 0.000000000000000, -1.00000000000000 ) );
#233 = SURFACE_STYLE_FILL_AREA( #322 );
#234 = ORIENTED_EDGE( '', *, *, #323, .T. );
#235 = ORIENTED_EDGE( '', *, *, #324, .F. );
#236 = CARTESIAN_POINT( '', ( 0.00750000000000000, -1.22464679914741E-20, 0.000000000000000 ) );
#237 = DIRECTION( '', ( 0.000000000000000, -1.00000000000000, 0.000000000000000 ) );
#238 = DIRECTION( '', ( 0.000000000000000, 0.000000000000000, -1.00000000000000 ) );
#239 = SURFACE_STYLE_FILL_AREA( #325 );
#240 = ORIENTED_EDGE( '', *, *, #326, .T. );
#241 = ORIENTED_EDGE( '', *, *, #323, .F. );
#242 = CARTESIAN_POINT( '', ( 0.000000000000000, -2.44929359829483E-20, 0.000000000000000 ) );
#243 = DIRECTION( '', ( -0.000000000000000, 1.00000000000000, -0.000000000000000 ) );
#244 = DIRECTION( '', ( 0.000000000000000, 0.000000000000000, 1.00000000000000 ) );
#245 = SURFACE_STYLE_FILL_AREA( #327 );
#246 = ORIENTED_EDGE( '', *, *, #328, .F. );
#247 = ORIENTED_EDGE( '', *, *, #329, .T. );
#248 = CARTESIAN_POINT( '', ( 0.000000000000000, 0.0280000000000000, 0.000000000000000 ) );
#249 = DIRECTION( '', ( 0.000000000000000, -1.00000000000000, -0.000000000000000 ) );
#250 = DIRECTION( '', ( 0.000000000000000, 0.000000000000000, -1.00000000000000 ) );
#251 = SURFACE_STYLE_FILL_AREA( #330 );
#252 = ORIENTED_EDGE( '', *, *, #329, .F. );
#253 = ORIENTED_EDGE( '', *, *, #331, .T. );
#254 = CARTESIAN_POINT( '', ( 0.000000000000000, 0.000000000000000, 0.000000000000000 ) );
#255 = DIRECTION( '', ( -0.000000000000000, 1.00000000000000, -0.000000000000000 ) );
#256 = DIRECTION( '', ( 0.000000000000000, 0.000000000000000, -1.00000000000000 ) );
#257 = SURFACE_STYLE_FILL_AREA( #332 );
#258 = ORIENTED_EDGE( '', *, *, #333, .F. );
#259 = ORIENTED_EDGE( '', *, *, #328, .T. );
#260 = CARTESIAN_POINT( '', ( 0.000000000000000, 0.000000000000000, 0.000000000000000 ) );
#261 = DIRECTION( '', ( -0.000000000000000, 1.00000000000000, -0.000000000000000 ) );
#262 = DIRECTION( '', ( 0.000000000000000, 0.000000000000000, -1.00000000000000 ) );
#263 = SURFACE_STYLE_FILL_AREA( #334 );
#264 = ORIENTED_EDGE( '', *, *, #335, .T. );
#265 = VERTEX_POINT( 'NONE', #336 );
#266 = CARTESIAN_POINT( '', ( 0.000000000000000, 0.0260000000000000, 0.000000000000000 ) );
#267 = DIRECTION( '', ( 0.000000000000000, -1.00000000000000, -0.000000000000000 ) );
#268 = DIRECTION( '', ( 0.000000000000000, 0.000000000000000, -1.00000000000000 ) );
#269 = SURFACE_STYLE_FILL_AREA( #337 );
#270 = ORIENTED_EDGE( '', *, *, #321, .F. );
#271 = ORIENTED_EDGE( '', *, *, #338, .T. );
#272 = CARTESIAN_POINT( '', ( 0.000000000000000, 0.000000000000000, 0.000000000000000 ) );
#273 = DIRECTION( '', ( -0.000000000000000, 1.00000000000000, -0.000000000000000 ) );
#274 = DIRECTION( '', ( 0.000000000000000, 0.000000000000000, -1.00000000000000 ) );
#275 = SURFACE_STYLE_FILL_AREA( #339 );
#276 = ORIENTED_EDGE( '', *, *, #333, .T. );
#277 = ORIENTED_EDGE( '', *, *, #338, .F. );
#278 = CARTESIAN_POINT( '', ( 0.00800000000000000, 0.0105331538290775, 0.000000000000000 ) );
#279 = DIRECTION( '', ( 0.000000000000000, -1.00000000000000, 0.000000000000000 ) );
#280 = DIRECTION( '', ( 0.000000000000000, 0.000000000000000, -1.00000000000000 ) );
#281 = SURFACE_STYLE_FILL_AREA( #340 );
#282 = ORIENTED_EDGE( '', *, *, #324, .T. );
#283 = ORIENTED_EDGE( '', *, *, #341, .F. );
#284 = CARTESIAN_POINT( '', ( 0.000000000000000, 0.000000000000000, 0.000000000000000 ) );
#285 = DIRECTION( '', ( 0.000000000000000, -1.00000000000000, -0.000000000000000 ) );
#286 = DIRECTION( '', ( 0.000000000000000, 0.000000000000000, -1.00000000000000 ) );
#287 = SURFACE_STYLE_FILL_AREA( #342 );
#288 = ORIENTED_EDGE( '', *, *, #343, .T. );
#289 = ORIENTED_EDGE( '', *, *, #331, .F. );
#290 = CARTESIAN_POINT( '', ( 0.000000000000000, 0.0372783121635130, 0.000000000000000 ) );
#291 = DIRECTION( '', ( -0.000000000000000, 1.00000000000000, -0.000000000000000 ) );
#292 = DIRECTION( '', ( 0.000000000000000, 0.000000000000000, 1.00000000000000 ) );
#293 = SURFACE_STYLE_FILL_AREA( #344 );
#294 = ORIENTED_EDGE( '', *, *, #345, .F. );
#295 = ORIENTED_EDGE( '', *, *, #318, .T. );
#296 = CARTESIAN_POINT( '', ( 0.000000000000000, 0.0397000000000000, 0.000000000000000 ) );
#297 = DIRECTION( '', ( 0.000000000000000, -1.00000000000000, -0.000000000000000 ) );
#298 = DIRECTION( '', ( 0.000000000000000, 0.000000000000000, -1.00000000000000 ) );
#299 = SURFACE_STYLE_FILL_AREA( #346 );
#300 = ORIENTED_EDGE( '', *, *, #341, .T. );
#301 = ORIENTED_EDGE( '', *, *, #335, .F. );
#302 = CARTESIAN_POINT( '', ( 0.000000000000000, -0.00182088149443059, 0.000000000000000 ) );
#303 = DIRECTION( '', ( -0.000000000000000, 1.00000000000000, -0.000000000000000 ) );
#304 = DIRECTION( '', ( 0.000000000000000, 0.000000000000000, -1.00000000000000 ) );
#305 = SURFACE_STYLE_FILL_AREA( #347 );
#306 = ORIENTED_EDGE( '', *, *, #343, .F. );
#307 = ORIENTED_EDGE( '', *, *, #345, .T. );
#308 = CARTESIAN_POINT( '', ( 0.000000000000000, 0.000000000000000, 0.000000000000000 ) );
#309 = DIRECTION( '', ( -0.000000000000000, 1.00000000000000, -0.000000000000000 ) );
#310 = DIRECTION( '', ( 0.000000000000000, 0.000000000000000, -1.00000000000000 ) );
#311 = SURFACE_STYLE_FILL_AREA( #348 );
#312 = ORIENTED_EDGE( '', *, *, #326, .F. );
#313 = ORIENTED_EDGE( '', *, *, #320, .T. );
#314 = CARTESIAN_POINT( '', ( 0.000000000000000, 0.000000000000000, 0.000000000000000 ) );
#315 = DIRECTION( '', ( -0.000000000000000, 1.00000000000000, -0.000000000000000 ) );
#316 = DIRECTION( '', ( 0.000000000000000, 0.000000000000000, -1.00000000000000 ) );
#317 = FILL_AREA_STYLE( '', ( #349 ) );
#318 = EDGE_CURVE( 'NONE', #350, #350, #351, .T. );
#319 = FILL_AREA_STYLE( '', ( #352 ) );
#320 = EDGE_CURVE( 'NONE', #353, #353, #354, .T. );
#321 = EDGE_CURVE( 'NONE', #355, #355, #356, .T. );
#322 = FILL_AREA_STYLE( '', ( #357 ) );
#323 = EDGE_CURVE( 'NONE', #358, #358, #359, .T. );
#324 = EDGE_CURVE( 'NONE', #360, #360, #361, .T. );
#325 = FILL_AREA_STYLE( '', ( #362 ) );
#326 = EDGE_CURVE( 'NONE', #363, #363, #364, .T. );
#327 = FILL_AREA_STYLE( '', ( #365 ) );
#328 = EDGE_CURVE( 'NONE', #366, #366, #367, .T. );
#329 = EDGE_CURVE( 'NONE', #368, #368, #369, .T. );
#330 = FILL_AREA_STYLE( '', ( #370 ) );
#331 = EDGE_CURVE( 'NONE', #371, #371, #372, .T. );
#332 = FILL_AREA_STYLE( '', ( #373 ) );
#333 = EDGE_CURVE( 'NONE', #374, #374, #375, .T. );
#334 = FILL_AREA_STYLE( '', ( #376 ) );
#335 = EDGE_CURVE( 'NONE', #377, #377, #378, .T. );
#336 = CARTESIAN_POINT( '', ( 3.87712545569266E-20, 0.0286261704679285, 0.000000000000000 ) );
#337 = FILL_AREA_STYLE( '', ( #379 ) );
#338 = EDGE_CURVE( 'NONE', #380, #380, #381, .T. );
#339 = FILL_AREA_STYLE( '', ( #382 ) );
#340 = FILL_AREA_STYLE( '', ( #383 ) );
#341 = EDGE_CURVE( 'NONE', #384, #384, #385, .T. );
#342 = FILL_AREA_STYLE( '', ( #386 ) );
#343 = EDGE_CURVE( 'NONE', #387, #387, #388, .T. );
#344 = FILL_AREA_STYLE( '', ( #389 ) );
#345 = EDGE_CURVE( 'NONE', #390, #390, #391, .T. );
#346 = FILL_AREA_STYLE( '', ( #392 ) );
#347 = FILL_AREA_STYLE( '', ( #393 ) );
#348 = FILL_AREA_STYLE( '', ( #394 ) );
#349 = FILL_AREA_STYLE_COLOUR( '', #395 );
#350 = VERTEX_POINT( '', #396 );
#351 = CIRCLE( '', #397, 0.00770000000000000 );
#352 = FILL_AREA_STYLE_COLOUR( '', #398 );
#353 = VERTEX_POINT( '', #399 );
#354 = CIRCLE( '', #400, 0.00800000000000000 );
#355 = VERTEX_POINT( '', #401 );
#356 = CIRCLE( '', #402, 0.00750000000000000 );
#357 = FILL_AREA_STYLE_COLOUR( '', #403 );
#358 = VERTEX_POINT( '', #404 );
#359 = CIRCLE( '', #405, 0.00750000000000000 );
#360 = VERTEX_POINT( '', #406 );
#361 = CIRCLE( '', #407, 0.00700000000000000 );
#362 = FILL_AREA_STYLE_COLOUR( '', #408 );
#363 = VERTEX_POINT( '', #409 );
#364 = CIRCLE( '', #410, 0.00800000000000000 );
#365 = FILL_AREA_STYLE_COLOUR( '', #411 );
#366 = VERTEX_POINT( '', #412 );
#367 = CIRCLE( '', #413, 0.00800000000000000 );
#368 = VERTEX_POINT( '', #414 );
#369 = CIRCLE( '', #415, 0.00675000000000000 );
#370 = FILL_AREA_STYLE_COLOUR( '', #416 );
#371 = VERTEX_POINT( '', #417 );
#372 = CIRCLE( '', #418, 0.00675000000000000 );
#373 = FILL_AREA_STYLE_COLOUR( '', #419 );
#374 = VERTEX_POINT( '', #420 );
#375 = CIRCLE( '', #421, 0.00800000000000000 );
#376 = FILL_AREA_STYLE_COLOUR( '', #422 );
#377 = VERTEX_POINT( '', #423 );
#378 = CIRCLE( '', #424, 0.00650000000000000 );
#379 = FILL_AREA_STYLE_COLOUR( '', #425 );
#380 = VERTEX_POINT( '', #426 );
#381 = CIRCLE( '', #427, 0.00750000000000000 );
#382 = FILL_AREA_STYLE_COLOUR( '', #428 );
#383 = FILL_AREA_STYLE_COLOUR( '', #429 );
#384 = VERTEX_POINT( '', #430 );
#385 = CIRCLE( '', #431, 0.00650000000000000 );
#386 = FILL_AREA_STYLE_COLOUR( '', #432 );
#387 = VERTEX_POINT( '', #433 );
#388 = CIRCLE( '', #434, 0.00800000000000000 );
#389 = FILL_AREA_STYLE_COLOUR( '', #435 );
#390 = VERTEX_POINT( '', #436 );
#391 = CIRCLE( '', #437, 0.00800000000000000 );
#392 = FILL_AREA_STYLE_COLOUR( '', #438 );
#393 = FILL_AREA_STYLE_COLOUR( '', #439 );
#394 = FILL_AREA_STYLE_COLOUR( '', #440 );
#395 = COLOUR_RGB( '', 0.752941191200000, 0.752941191200000, 0.752941191200000 );
#396 = CARTESIAN_POINT( '', ( 0.000000000000000, 0.0400000000000003, -0.00770000000000026 ) );
#397 = AXIS2_PLACEMENT_3D( '', #441, #442, #443 );
#398 = COLOUR_RGB( '', 0.752941191200000, 0.752941191200000, 0.752941191200000 );
#399 = CARTESIAN_POINT( '', ( 0.000000000000000, 0.00850000000000026, -0.00800000000000026 ) );
#400 = AXIS2_PLACEMENT_3D( '', #444, #445, #446 );
#401 = CARTESIAN_POINT( '', ( 0.000000000000000, 0.00873315382907771, -0.00750000000000026 ) );
#402 = AXIS2_PLACEMENT_3D( '', #447, #448, #449 );
#403 = COLOUR_RGB( '', 0.752941191200000, 0.752941191200000, 0.752941191200000 );
#404 = CARTESIAN_POINT( '', ( 0.000000000000000, -2.54024492935983E-16, -0.00750000000000026 ) );
#405 = AXIS2_PLACEMENT_3D( '', #450, #451, #452 );
#406 = CARTESIAN_POINT( '', ( 0.000000000000000, 0.000000000000000, -0.00700000000000026 ) );
#407 = AXIS2_PLACEMENT_3D( '', #453, #454, #455 );
#408 = COLOUR_RGB( '', 0.752941191200000, 0.752941191200000, 0.752941191200000 );
#409 = CARTESIAN_POINT( '', ( 0.000000000000000, 0.000500000000000254, -0.00800000000000026 ) );
#410 = AXIS2_PLACEMENT_3D( '', #456, #457, #458 );
#411 = COLOUR_RGB( '', 0.752941191200000, 0.752941191200000, 0.752941191200000 );
#412 = CARTESIAN_POINT( '', ( 0.000000000000000, 0.0280000000000003, -0.00800000000000026 ) );
#413 = AXIS2_PLACEMENT_3D( '', #459, #460, #461 );
#414 = CARTESIAN_POINT( '', ( 0.000000000000000, 0.0287216878364873, -0.00675000000000026 ) );
#415 = AXIS2_PLACEMENT_3D( '', #462, #463, #464 );
#416 = COLOUR_RGB( '', 0.752941191200000, 0.752941191200000, 0.752941191200000 );
#417 = CARTESIAN_POINT( '', ( 0.000000000000000, 0.0372783121635133, -0.00675000000000026 ) );
#418 = AXIS2_PLACEMENT_3D( '', #465, #466, #467 );
#419 = COLOUR_RGB( '', 0.752941191200000, 0.752941191200000, 0.752941191200000 );
#420 = CARTESIAN_POINT( '', ( 0.000000000000000, 0.0105331538290777, -0.00800000000000026 ) );
#421 = AXIS2_PLACEMENT_3D( '', #468, #469, #470 );
#422 = COLOUR_RGB( '', 0.752941191200000, 0.752941191200000, 0.752941191200000 );
#423 = CARTESIAN_POINT( '', ( 0.000000000000000, 0.0260000000000003, -0.00650000000000025 ) );
#424 = AXIS2_PLACEMENT_3D( '', #471, #472, #473 );
#425 = COLOUR_RGB( '', 0.752941191200000, 0.752941191200000, 0.752941191200000 );
#426 = CARTESIAN_POINT( '', ( 0.000000000000000, 0.0105331538290777, -0.00750000000000026 ) );
#427 = AXIS2_PLACEMENT_3D( '', #474, #475, #476 );
#428 = COLOUR_RGB( '', 0.752941191200000, 0.752941191200000, 0.752941191200000 );
#429 = COLOUR_RGB( '', 0.752941191200000, 0.752941191200000, 0.752941191200000 );
#430 = CARTESIAN_POINT( '', ( 0.000000000000000, 0.000500000000000254, -0.00650000000000025 ) );
#431 = AXIS2_PLACEMENT_3D( '', #477, #478, #479 );
#432 = COLOUR_RGB( '', 0.752941191200000, 0.752941191200000, 0.752941191200000 );
#433 = CARTESIAN_POINT( '', ( 0.000000000000000, 0.0380000000000003, -0.00800000000000026 ) );
#434 = AXIS2_PLACEMENT_3D( '', #480, #481, #482 );
#435 = COLOUR_RGB( '', 0.752941191200000, 0.752941191200000, 0.752941191200000 );
#436 = CARTESIAN_POINT( '', ( 0.000000000000000, 0.0397000000000003, -0.00800000000000026 ) );
#437 = AXIS2_PLACEMENT_3D( '', #483, #484, #485 );
#438 = COLOUR_RGB( '', 0.752941191200000, 0.752941191200000, 0.752941191200000 );
#439 = COLOUR_RGB( '', 0.752941191200000, 0.752941191200000, 0.752941191200000 );
#440 = COLOUR_RGB( '', 0.752941191200000, 0.752941191200000, 0.752941191200000 );
#441 = CARTESIAN_POINT( '', ( 0.000000000000000, 0.0400000000000003, 0.000000000000000 ) );
#442 = DIRECTION( '', ( 0.000000000000000, -1.00000000000000, 0.000000000000000 ) );
#443 = DIRECTION( '', ( 0.000000000000000, 0.000000000000000, -1.00000000000000 ) );
#444 = CARTESIAN_POINT( '', ( 0.000000000000000, 0.00850000000000026, 0.000000000000000 ) );
#445 = DIRECTION( '', ( 0.000000000000000, -1.00000000000000, 0.000000000000000 ) );
#446 = DIRECTION( '', ( 0.000000000000000, 0.000000000000000, -1.00000000000000 ) );
#447 = CARTESIAN_POINT( '', ( 0.000000000000000, 0.00873315382907771, 0.000000000000000 ) );
#448 = DIRECTION( '', ( 0.000000000000000, -1.00000000000000, 0.000000000000000 ) );
#449 = DIRECTION( '', ( 0.000000000000000, 0.000000000000000, -1.00000000000000 ) );
#450 = CARTESIAN_POINT( '', ( 0.000000000000000, -2.54024492935983E-16, 0.000000000000000 ) );
#451 = DIRECTION( '', ( 0.000000000000000, -1.00000000000000, 0.000000000000000 ) );
#452 = DIRECTION( '', ( 0.000000000000000, 0.000000000000000, -1.00000000000000 ) );
#453 = CARTESIAN_POINT( '', ( 0.000000000000000, 0.000000000000000, 0.000000000000000 ) );
#454 = DIRECTION( '', ( 0.000000000000000, -1.00000000000000, 0.000000000000000 ) );
#455 = DIRECTION( '', ( 0.000000000000000, 0.000000000000000, -1.00000000000000 ) );
#456 = CARTESIAN_POINT( '', ( 0.000000000000000, 0.000500000000000254, 0.000000000000000 ) );
#457 = DIRECTION( '', ( 0.000000000000000, -1.00000000000000, 0.000000000000000 ) );
#458 = DIRECTION( '', ( 0.000000000000000, 0.000000000000000, -1.00000000000000 ) );
#459 = CARTESIAN_POINT( '', ( 0.000000000000000, 0.0280000000000003, 0.000000000000000 ) );
#460 = DIRECTION( '', ( 0.000000000000000, -1.00000000000000, 0.000000000000000 ) );
#461 = DIRECTION( '', ( 0.000000000000000, 0.000000000000000, -1.00000000000000 ) );
#462 = CARTESIAN_POINT( '', ( 0.000000000000000, 0.0287216878364873, 0.000000000000000 ) );
#463 = DIRECTION( '', ( 0.000000000000000, -1.00000000000000, 0.000000000000000 ) );
#464 = DIRECTION( '', ( 0.000000000000000, 0.000000000000000, -1.00000000000000 ) );
#465 = CARTESIAN_POINT( '', ( 0.000000000000000, 0.0372783121635133, 0.000000000000000 ) );
#466 = DIRECTION( '', ( 0.000000000000000, -1.00000000000000, 0.000000000000000 ) );
#467 = DIRECTION( '', ( 0.000000000000000, 0.000000000000000, -1.00000000000000 ) );
#468 = CARTESIAN_POINT( '', ( 0.000000000000000, 0.0105331538290777, 0.000000000000000 ) );
#469 = DIRECTION( '', ( 0.000000000000000, -1.00000000000000, 0.000000000000000 ) );
#470 = DIRECTION( '', ( 0.000000000000000, 0.000000000000000, -1.00000000000000 ) );
#471 = CARTESIAN_POINT( '', ( 0.000000000000000, 0.0260000000000003, 0.000000000000000 ) );
#472 = DIRECTION( '', ( 0.000000000000000, -1.00000000000000, 0.000000000000000 ) );
#473 = DIRECTION( '', ( 0.000000000000000, 0.000000000000000, -1.00000000000000 ) );
#474 = CARTESIAN_POINT( '', ( 0.000000000000000, 0.0105331538290777, 0.000000000000000 ) );
#475 = DIRECTION( '', ( 0.000000000000000, -1.00000000000000, 0.000000000000000 ) );
#476 = DIRECTION( '', ( 0.000000000000000, 0.000000000000000, -1.00000000000000 ) );
#477 = CARTESIAN_POINT( '', ( 0.000000000000000, 0.000500000000000254, 0.000000000000000 ) );
#478 = DIRECTION( '', ( 0.000000000000000, -1.00000000000000, 0.000000000000000 ) );
#479 = DIRECTION( '', ( 0.000000000000000, 0.000000000000000, -1.00000000000000 ) );
#480 = CARTESIAN_POINT( '', ( 0.000000000000000, 0.0380000000000003, 0.000000000000000 ) );
#481 = DIRECTION( '', ( 0.000000000000000, -1.00000000000000, 0.000000000000000 ) );
#482 = DIRECTION( '', ( 0.000000000000000, 0.000000000000000, -1.00000000000000 ) );
#483 = CARTESIAN_POINT( '', ( 0.000000000000000, 0.0397000000000003, 0.000000000000000 ) );
#484 = DIRECTION( '', ( 0.000000000000000, -1.00000000000000, 0.000000000000000 ) );
#485 = DIRECTION( '', ( 0.000000000000000, 0.000000000000000, -1.00000000000000 ) );
ENDSEC;
END-ISO-10303-21;
