ISO-10303-21;
HEADER;
/* Generated by software containing ST-Developer
 * from STEP Tools, Inc. (www.steptools.com) 
 */

FILE_DESCRIPTION(
/* description */ (''),
/* implementation_level */ '2;1');

FILE_NAME(
/* name */ 'H:\\CAD\\neutral\\3d\\72013\\ff_40_es.stp',
/* time_stamp */ '2017-12-18T12:55:59+01:00',
/* author */ ('leitheu\X\DFer'),
/* organization */ (''),
/* preprocessor_version */ 'ST-DEVELOPER v15.6',
/* originating_system */ 'Autodesk Inventor LT ',
/* authorisation */ '');

FILE_SCHEMA (('AUTOMOTIVE_DESIGN { 1 0 10303 214 3 1 1 }'));
ENDSEC;

DATA;
#10=MECHANICAL_DESIGN_GEOMETRIC_PRESENTATION_REPRESENTATION('',(#16),#272);
#11=DIMENSIONAL_EXPONENTS(0.,0.,0.,0.,0.,0.,0.);
#12=(
CONVERSION_BASED_UNIT('degree',#13)
NAMED_UNIT(#11)
PLANE_ANGLE_UNIT()
);
#13=PLANE_ANGLE_MEASURE_WITH_UNIT(PLANE_ANGLE_MEASURE(0.01745329252),#275);
#14=SHAPE_REPRESENTATION_RELATIONSHIP('SRR','None',#278,#15);
#15=ADVANCED_BREP_SHAPE_REPRESENTATION($,(#17),#271);
#16=STYLED_ITEM('',(#287),#17);
#17=MANIFOLD_SOLID_BREP('Rivoluzione1',#152);
#18=PLANE('',#173);
#19=PLANE('',#174);
#20=PLANE('',#175);
#21=PLANE('',#176);
#22=PLANE('',#177);
#23=PLANE('',#178);
#24=CYLINDRICAL_SURFACE('',#157,6.00000000000001);
#25=CYLINDRICAL_SURFACE('',#159,5.75000000000001);
#26=CYLINDRICAL_SURFACE('',#162,6.00000000000001);
#27=CYLINDRICAL_SURFACE('',#165,5.75000000000001);
#28=CYLINDRICAL_SURFACE('',#168,6.00000000000001);
#29=FACE_BOUND('',#54,.T.);
#30=FACE_BOUND('',#56,.T.);
#31=FACE_BOUND('',#58,.T.);
#32=FACE_BOUND('',#60,.T.);
#33=FACE_BOUND('',#62,.T.);
#34=FACE_BOUND('',#64,.T.);
#35=FACE_BOUND('',#66,.T.);
#36=FACE_BOUND('',#69,.T.);
#37=FACE_BOUND('',#71,.T.);
#38=FACE_BOUND('',#73,.T.);
#39=FACE_BOUND('',#75,.T.);
#40=FACE_OUTER_BOUND('',#53,.T.);
#41=FACE_OUTER_BOUND('',#55,.T.);
#42=FACE_OUTER_BOUND('',#57,.T.);
#43=FACE_OUTER_BOUND('',#59,.T.);
#44=FACE_OUTER_BOUND('',#61,.T.);
#45=FACE_OUTER_BOUND('',#63,.T.);
#46=FACE_OUTER_BOUND('',#65,.T.);
#47=FACE_OUTER_BOUND('',#67,.T.);
#48=FACE_OUTER_BOUND('',#68,.T.);
#49=FACE_OUTER_BOUND('',#70,.T.);
#50=FACE_OUTER_BOUND('',#72,.T.);
#51=FACE_OUTER_BOUND('',#74,.T.);
#52=FACE_OUTER_BOUND('',#76,.T.);
#53=EDGE_LOOP('',(#113));
#54=EDGE_LOOP('',(#114));
#55=EDGE_LOOP('',(#115));
#56=EDGE_LOOP('',(#116));
#57=EDGE_LOOP('',(#117));
#58=EDGE_LOOP('',(#118));
#59=EDGE_LOOP('',(#119));
#60=EDGE_LOOP('',(#120));
#61=EDGE_LOOP('',(#121));
#62=EDGE_LOOP('',(#122));
#63=EDGE_LOOP('',(#123));
#64=EDGE_LOOP('',(#124));
#65=EDGE_LOOP('',(#125));
#66=EDGE_LOOP('',(#126));
#67=EDGE_LOOP('',(#127));
#68=EDGE_LOOP('',(#128));
#69=EDGE_LOOP('',(#129));
#70=EDGE_LOOP('',(#130));
#71=EDGE_LOOP('',(#131));
#72=EDGE_LOOP('',(#132));
#73=EDGE_LOOP('',(#133));
#74=EDGE_LOOP('',(#134));
#75=EDGE_LOOP('',(#135));
#76=EDGE_LOOP('',(#136));
#77=CIRCLE('',#155,5.);
#78=CIRCLE('',#156,6.);
#79=CIRCLE('',#158,6.00000000000001);
#80=CIRCLE('',#160,5.75000000000001);
#81=CIRCLE('',#161,5.75000000000001);
#82=CIRCLE('',#163,6.00000000000001);
#83=CIRCLE('',#164,6.00000000000001);
#84=CIRCLE('',#166,5.75000000000001);
#85=CIRCLE('',#167,5.75000000000001);
#86=CIRCLE('',#169,6.00000000000001);
#87=CIRCLE('',#170,6.00000000000001);
#88=CIRCLE('',#172,4.99999999999998);
#89=VERTEX_POINT('',#233);
#90=VERTEX_POINT('',#235);
#91=VERTEX_POINT('',#238);
#92=VERTEX_POINT('',#241);
#93=VERTEX_POINT('',#243);
#94=VERTEX_POINT('',#246);
#95=VERTEX_POINT('',#248);
#96=VERTEX_POINT('',#251);
#97=VERTEX_POINT('',#253);
#98=VERTEX_POINT('',#256);
#99=VERTEX_POINT('',#258);
#100=VERTEX_POINT('',#261);
#101=EDGE_CURVE('',#89,#89,#77,.T.);
#102=EDGE_CURVE('',#90,#90,#78,.T.);
#103=EDGE_CURVE('',#91,#91,#79,.T.);
#104=EDGE_CURVE('',#92,#92,#80,.T.);
#105=EDGE_CURVE('',#93,#93,#81,.T.);
#106=EDGE_CURVE('',#94,#94,#82,.T.);
#107=EDGE_CURVE('',#95,#95,#83,.T.);
#108=EDGE_CURVE('',#96,#96,#84,.T.);
#109=EDGE_CURVE('',#97,#97,#85,.T.);
#110=EDGE_CURVE('',#98,#98,#86,.T.);
#111=EDGE_CURVE('',#99,#99,#87,.T.);
#112=EDGE_CURVE('',#100,#100,#88,.T.);
#113=ORIENTED_EDGE('',*,*,#101,.T.);
#114=ORIENTED_EDGE('',*,*,#102,.F.);
#115=ORIENTED_EDGE('',*,*,#102,.T.);
#116=ORIENTED_EDGE('',*,*,#103,.F.);
#117=ORIENTED_EDGE('',*,*,#104,.T.);
#118=ORIENTED_EDGE('',*,*,#105,.F.);
#119=ORIENTED_EDGE('',*,*,#106,.T.);
#120=ORIENTED_EDGE('',*,*,#107,.F.);
#121=ORIENTED_EDGE('',*,*,#108,.T.);
#122=ORIENTED_EDGE('',*,*,#109,.F.);
#123=ORIENTED_EDGE('',*,*,#110,.T.);
#124=ORIENTED_EDGE('',*,*,#111,.F.);
#125=ORIENTED_EDGE('',*,*,#112,.F.);
#126=ORIENTED_EDGE('',*,*,#111,.T.);
#127=ORIENTED_EDGE('',*,*,#112,.T.);
#128=ORIENTED_EDGE('',*,*,#110,.F.);
#129=ORIENTED_EDGE('',*,*,#109,.T.);
#130=ORIENTED_EDGE('',*,*,#107,.T.);
#131=ORIENTED_EDGE('',*,*,#108,.F.);
#132=ORIENTED_EDGE('',*,*,#106,.F.);
#133=ORIENTED_EDGE('',*,*,#105,.T.);
#134=ORIENTED_EDGE('',*,*,#103,.T.);
#135=ORIENTED_EDGE('',*,*,#104,.F.);
#136=ORIENTED_EDGE('',*,*,#101,.F.);
#137=CONICAL_SURFACE('',#154,5.,0.785398163397438);
#138=CONICAL_SURFACE('',#171,6.00000000000001,0.78539816339746);
#139=ADVANCED_FACE('',(#40,#29),#137,.T.);
#140=ADVANCED_FACE('',(#41,#30),#24,.T.);
#141=ADVANCED_FACE('',(#42,#31),#25,.T.);
#142=ADVANCED_FACE('',(#43,#32),#26,.T.);
#143=ADVANCED_FACE('',(#44,#33),#27,.T.);
#144=ADVANCED_FACE('',(#45,#34),#28,.T.);
#145=ADVANCED_FACE('',(#46,#35),#138,.T.);
#146=ADVANCED_FACE('',(#47),#18,.F.);
#147=ADVANCED_FACE('',(#48,#36),#19,.F.);
#148=ADVANCED_FACE('',(#49,#37),#20,.F.);
#149=ADVANCED_FACE('',(#50,#38),#21,.F.);
#150=ADVANCED_FACE('',(#51,#39),#22,.F.);
#151=ADVANCED_FACE('',(#52),#23,.F.);
#152=CLOSED_SHELL('',(#139,#140,#141,#142,#143,#144,#145,#146,#147,#148,
#149,#150,#151));
#153=AXIS2_PLACEMENT_3D('placement',#231,#179,#180);
#154=AXIS2_PLACEMENT_3D('',#232,#181,#182);
#155=AXIS2_PLACEMENT_3D('',#234,#183,#184);
#156=AXIS2_PLACEMENT_3D('',#236,#185,#186);
#157=AXIS2_PLACEMENT_3D('',#237,#187,#188);
#158=AXIS2_PLACEMENT_3D('',#239,#189,#190);
#159=AXIS2_PLACEMENT_3D('',#240,#191,#192);
#160=AXIS2_PLACEMENT_3D('',#242,#193,#194);
#161=AXIS2_PLACEMENT_3D('',#244,#195,#196);
#162=AXIS2_PLACEMENT_3D('',#245,#197,#198);
#163=AXIS2_PLACEMENT_3D('',#247,#199,#200);
#164=AXIS2_PLACEMENT_3D('',#249,#201,#202);
#165=AXIS2_PLACEMENT_3D('',#250,#203,#204);
#166=AXIS2_PLACEMENT_3D('',#252,#205,#206);
#167=AXIS2_PLACEMENT_3D('',#254,#207,#208);
#168=AXIS2_PLACEMENT_3D('',#255,#209,#210);
#169=AXIS2_PLACEMENT_3D('',#257,#211,#212);
#170=AXIS2_PLACEMENT_3D('',#259,#213,#214);
#171=AXIS2_PLACEMENT_3D('',#260,#215,#216);
#172=AXIS2_PLACEMENT_3D('',#262,#217,#218);
#173=AXIS2_PLACEMENT_3D('',#263,#219,#220);
#174=AXIS2_PLACEMENT_3D('',#264,#221,#222);
#175=AXIS2_PLACEMENT_3D('',#265,#223,#224);
#176=AXIS2_PLACEMENT_3D('',#266,#225,#226);
#177=AXIS2_PLACEMENT_3D('',#267,#227,#228);
#178=AXIS2_PLACEMENT_3D('',#268,#229,#230);
#179=DIRECTION('axis',(0.,0.,1.));
#180=DIRECTION('refdir',(1.,0.,0.));
#181=DIRECTION('center_axis',(0.,-1.22464679914735E-16,1.));
#182=DIRECTION('ref_axis',(0.,-1.,-1.22464679914735E-16));
#183=DIRECTION('center_axis',(0.,-1.22464679914735E-16,1.));
#184=DIRECTION('ref_axis',(0.,-1.,-1.22464679914735E-16));
#185=DIRECTION('center_axis',(0.,-1.22464679914735E-16,1.));
#186=DIRECTION('ref_axis',(0.,-1.,-1.22464679914735E-16));
#187=DIRECTION('center_axis',(0.,-1.22464679914735E-16,1.));
#188=DIRECTION('ref_axis',(0.,-1.,-1.22464679914735E-16));
#189=DIRECTION('center_axis',(0.,-1.22464679914735E-16,1.));
#190=DIRECTION('ref_axis',(0.,-1.,-1.22464679914735E-16));
#191=DIRECTION('center_axis',(0.,-1.22464679914735E-16,1.));
#192=DIRECTION('ref_axis',(0.,-1.,-1.22464679914735E-16));
#193=DIRECTION('center_axis',(0.,-1.22464679914735E-16,1.));
#194=DIRECTION('ref_axis',(0.,-1.,-1.22464679914735E-16));
#195=DIRECTION('center_axis',(0.,-1.22464679914735E-16,1.));
#196=DIRECTION('ref_axis',(0.,-1.,-1.22464679914735E-16));
#197=DIRECTION('center_axis',(0.,-1.22464679914735E-16,1.));
#198=DIRECTION('ref_axis',(0.,-1.,-1.22464679914735E-16));
#199=DIRECTION('center_axis',(0.,-1.22464679914735E-16,1.));
#200=DIRECTION('ref_axis',(0.,-1.,-1.22464679914735E-16));
#201=DIRECTION('center_axis',(0.,-1.22464679914735E-16,1.));
#202=DIRECTION('ref_axis',(0.,-1.,-1.22464679914735E-16));
#203=DIRECTION('center_axis',(0.,-1.22464679914735E-16,1.));
#204=DIRECTION('ref_axis',(0.,-1.,-1.22464679914735E-16));
#205=DIRECTION('center_axis',(0.,-1.22464679914735E-16,1.));
#206=DIRECTION('ref_axis',(0.,-1.,-1.22464679914735E-16));
#207=DIRECTION('center_axis',(0.,-1.22464679914735E-16,1.));
#208=DIRECTION('ref_axis',(0.,-1.,-1.22464679914735E-16));
#209=DIRECTION('center_axis',(0.,-1.22464679914735E-16,1.));
#210=DIRECTION('ref_axis',(0.,-1.,-1.22464679914735E-16));
#211=DIRECTION('center_axis',(0.,-1.22464679914735E-16,1.));
#212=DIRECTION('ref_axis',(0.,-1.,-1.22464679914735E-16));
#213=DIRECTION('center_axis',(0.,-1.22464679914735E-16,1.));
#214=DIRECTION('ref_axis',(0.,-1.,-1.22464679914735E-16));
#215=DIRECTION('center_axis',(0.,1.22464679914735E-16,-1.));
#216=DIRECTION('ref_axis',(0.,1.,1.22464679914735E-16));
#217=DIRECTION('center_axis',(0.,-1.22464679914735E-16,1.));
#218=DIRECTION('ref_axis',(0.,-1.,-1.22464679914735E-16));
#219=DIRECTION('center_axis',(0.,1.22464679914735E-16,-1.));
#220=DIRECTION('ref_axis',(0.,1.,0.));
#221=DIRECTION('center_axis',(0.,-1.22464679914735E-16,1.));
#222=DIRECTION('ref_axis',(0.,-1.,0.));
#223=DIRECTION('center_axis',(0.,1.22464679914735E-16,-1.));
#224=DIRECTION('ref_axis',(0.,1.,0.));
#225=DIRECTION('center_axis',(0.,-1.22464679914735E-16,1.));
#226=DIRECTION('ref_axis',(0.,-1.,0.));
#227=DIRECTION('center_axis',(0.,1.22464679914735E-16,-1.));
#228=DIRECTION('ref_axis',(0.,1.,0.));
#229=DIRECTION('center_axis',(0.,-1.22464679914735E-16,1.));
#230=DIRECTION('ref_axis',(0.,-1.,0.));
#231=CARTESIAN_POINT('',(0.,0.,0.));
#232=CARTESIAN_POINT('Origin',(0.,-4.22503145705837E-15,-30.));
#233=CARTESIAN_POINT('',(0.,-5.00000000000001,-30.));
#234=CARTESIAN_POINT('Origin',(0.,-4.22503145705837E-15,-30.));
#235=CARTESIAN_POINT('',(0.,-6.00000000000001,-29.));
#236=CARTESIAN_POINT('Origin',(0.,-4.34749613697311E-15,-29.));
#237=CARTESIAN_POINT('Origin',(0.,-1.15729122519425E-14,30.));
#238=CARTESIAN_POINT('',(0.,-6.00000000000001,-27.6));
#239=CARTESIAN_POINT('Origin',(0.,-4.51894668885373E-15,-27.6));
#240=CARTESIAN_POINT('Origin',(0.,-1.15729122519425E-14,30.));
#241=CARTESIAN_POINT('',(0.,-5.75000000000002,-27.6));
#242=CARTESIAN_POINT('Origin',(0.,-4.51894668885373E-15,-27.6));
#243=CARTESIAN_POINT('',(0.,-5.75000000000001,-26.5));
#244=CARTESIAN_POINT('Origin',(0.,-4.65365783675994E-15,-26.5));
#245=CARTESIAN_POINT('Origin',(0.,-1.15729122519425E-14,30.));
#246=CARTESIAN_POINT('',(0.,-6.00000000000001,-26.5));
#247=CARTESIAN_POINT('Origin',(0.,-4.65365783675994E-15,-26.5));
#248=CARTESIAN_POINT('',(0.,-6.00000000000002,26.5));
#249=CARTESIAN_POINT('Origin',(0.,-1.11442858722409E-14,26.5));
#250=CARTESIAN_POINT('Origin',(0.,-1.15729122519425E-14,30.));
#251=CARTESIAN_POINT('',(0.,-5.75000000000002,26.5));
#252=CARTESIAN_POINT('Origin',(0.,-1.11442858722409E-14,26.5));
#253=CARTESIAN_POINT('',(0.,-5.75000000000002,27.6));
#254=CARTESIAN_POINT('Origin',(0.,-1.12789970201471E-14,27.6));
#255=CARTESIAN_POINT('Origin',(0.,-1.15729122519425E-14,30.));
#256=CARTESIAN_POINT('',(0.,-6.00000000000002,27.6));
#257=CARTESIAN_POINT('Origin',(0.,-1.12789970201471E-14,27.6));
#258=CARTESIAN_POINT('',(7.34788079488413E-16,-6.00000000000002,29.));
#259=CARTESIAN_POINT('Origin',(0.,-1.14504475720278E-14,29.));
#260=CARTESIAN_POINT('Origin',(0.,-1.14504475720278E-14,29.));
#261=CARTESIAN_POINT('',(0.,4.99999999999997,30.));
#262=CARTESIAN_POINT('Origin',(0.,-1.15729122519425E-14,30.));
#263=CARTESIAN_POINT('Origin',(0.,-1.15729122519425E-14,30.));
#264=CARTESIAN_POINT('Origin',(0.,6.,27.6));
#265=CARTESIAN_POINT('Origin',(0.,5.75,26.5));
#266=CARTESIAN_POINT('Origin',(0.,6.,-26.5));
#267=CARTESIAN_POINT('Origin',(0.,5.75000000000001,-27.6));
#268=CARTESIAN_POINT('Origin',(0.,5.,-30.));
#269=UNCERTAINTY_MEASURE_WITH_UNIT(LENGTH_MEASURE(0.01),#273,
'DISTANCE_ACCURACY_VALUE',
'Maximum model space distance between geometric entities at asserted c
onnectivities');
#270=UNCERTAINTY_MEASURE_WITH_UNIT(LENGTH_MEASURE(1.E-6),#273,
'DISTANCE_ACCURACY_VALUE',
'Maximum model space distance between geometric entities at asserted c
onnectivities');
#271=(
GEOMETRIC_REPRESENTATION_CONTEXT(3)
GLOBAL_UNCERTAINTY_ASSIGNED_CONTEXT((#269))
GLOBAL_UNIT_ASSIGNED_CONTEXT((#273,#275,#274))
REPRESENTATION_CONTEXT('','3D')
);
#272=(
GEOMETRIC_REPRESENTATION_CONTEXT(3)
GLOBAL_UNCERTAINTY_ASSIGNED_CONTEXT((#270))
GLOBAL_UNIT_ASSIGNED_CONTEXT((#273,#12,#274))
REPRESENTATION_CONTEXT('','3D')
);
#273=(
LENGTH_UNIT()
NAMED_UNIT(*)
SI_UNIT(.MILLI.,.METRE.)
);
#274=(
NAMED_UNIT(*)
SI_UNIT($,.STERADIAN.)
SOLID_ANGLE_UNIT()
);
#275=(
NAMED_UNIT(*)
PLANE_ANGLE_UNIT()
SI_UNIT($,.RADIAN.)
);
#276=SHAPE_DEFINITION_REPRESENTATION(#277,#278);
#277=PRODUCT_DEFINITION_SHAPE('',$,#280);
#278=SHAPE_REPRESENTATION('',(#153),#271);
#279=PRODUCT_DEFINITION_CONTEXT('part definition',#284,'design');
#280=PRODUCT_DEFINITION('IN07-40','IN07-40',#281,#279);
#281=PRODUCT_DEFINITION_FORMATION('',$,#286);
#282=PRODUCT_RELATED_PRODUCT_CATEGORY('IN07-40','IN07-40',(#286));
#283=APPLICATION_PROTOCOL_DEFINITION('international standard',
'automotive_design',2009,#284);
#284=APPLICATION_CONTEXT(
'Core Data for Automotive Mechanical Design Process');
#285=PRODUCT_CONTEXT('part definition',#284,'mechanical');
#286=PRODUCT('IN07-40','IN07-40',$,(#285));
#287=PRESENTATION_STYLE_ASSIGNMENT((#288));
#288=SURFACE_STYLE_USAGE(.BOTH.,#289);
#289=SURFACE_SIDE_STYLE($,(#290));
#290=SURFACE_STYLE_FILL_AREA(#291);
#291=FILL_AREA_STYLE($,(#292));
#292=FILL_AREA_STYLE_COLOUR($,#293);
#293=COLOUR_RGB('',0.749019607843137,0.749019607843137,0.749019607843137);
ENDSEC;
END-ISO-10303-21;
