ISO-10303-21;
HEADER;
/* Generated by software containing ST-Developer
 * from STEP Tools, Inc. (www.steptools.com) 
 */

FILE_DESCRIPTION(
/* description */ (''),
/* implementation_level */ '2;1');

FILE_NAME(
/* name */ 'H:\\CAD\\neutral\\3d\\74098\\vsti_7-8_unf.stp',
/* time_stamp */ '2017-01-24T14:21:45+01:00',
/* author */ ('leitheu\X\DFer'),
/* organization */ (''),
/* preprocessor_version */ 'ST-DEVELOPER v15.6',
/* originating_system */ 'Autodesk Inventor LT ',
/* authorisation */ '');

FILE_SCHEMA (('AUTOMOTIVE_DESIGN { 1 0 10303 214 3 1 1 }'));
ENDSEC;

DATA;
#10=MECHANICAL_DESIGN_GEOMETRIC_PRESENTATION_REPRESENTATION('',(#13,#14),
#546);
#11=SHAPE_REPRESENTATION_RELATIONSHIP('SRR','None',#555,#12);
#12=ADVANCED_BREP_SHAPE_REPRESENTATION($,(#15,#16),#545);
#13=STYLED_ITEM('',(#564),#15);
#14=STYLED_ITEM('',(#564),#16);
#15=MANIFOLD_SOLID_BREP('14E5',#312);
#16=MANIFOLD_SOLID_BREP('Solido1',#313);
#17=LINE('',#513,#29);
#18=LINE('',#514,#30);
#19=LINE('',#515,#31);
#20=LINE('',#518,#32);
#21=LINE('',#519,#33);
#22=LINE('',#522,#34);
#23=LINE('',#523,#35);
#24=LINE('',#526,#36);
#25=LINE('',#527,#37);
#26=LINE('',#530,#38);
#27=LINE('',#531,#39);
#28=LINE('',#533,#40);
#29=VECTOR('',#408,5.77350269189626);
#30=VECTOR('',#409,5.95583425857403);
#31=VECTOR('',#410,5.95583425857403);
#32=VECTOR('',#413,5.77350269189625);
#33=VECTOR('',#414,5.95583425857403);
#34=VECTOR('',#417,5.77350269189626);
#35=VECTOR('',#418,5.95583425857403);
#36=VECTOR('',#421,5.77350269189626);
#37=VECTOR('',#422,5.95583425857402);
#38=VECTOR('',#425,5.77350269189625);
#39=VECTOR('',#426,5.95583425857403);
#40=VECTOR('',#429,5.77350269189626);
#41=PLANE('',#340);
#42=PLANE('',#341);
#43=PLANE('',#342);
#44=PLANE('',#343);
#45=PLANE('',#344);
#46=PLANE('',#345);
#47=PLANE('',#346);
#48=PLANE('',#347);
#49=PLANE('',#348);
#50=PLANE('',#349);
#51=PLANE('',#350);
#52=(
BOUNDED_CURVE()
B_SPLINE_CURVE(2,(#488,#489,#490),.UNSPECIFIED.,.F.,.F.)
B_SPLINE_CURVE_WITH_KNOTS((3,3),(-0.937625715295863,-0.240675150179699),
 .UNSPECIFIED.)
CURVE()
GEOMETRIC_REPRESENTATION_ITEM()
RATIONAL_B_SPLINE_CURVE((1.1678700203076,1.34854014120617,1.1678700203076))
REPRESENTATION_ITEM('')
);
#53=(
BOUNDED_CURVE()
B_SPLINE_CURVE(2,(#492,#493,#494),.UNSPECIFIED.,.F.,.F.)
B_SPLINE_CURVE_WITH_KNOTS((3,3),(-0.937625715295864,-0.2406751501797),
 .UNSPECIFIED.)
CURVE()
GEOMETRIC_REPRESENTATION_ITEM()
RATIONAL_B_SPLINE_CURVE((1.1678700203076,1.34854014120617,1.1678700203076))
REPRESENTATION_ITEM('')
);
#54=(
BOUNDED_CURVE()
B_SPLINE_CURVE(2,(#496,#497,#498),.UNSPECIFIED.,.F.,.F.)
B_SPLINE_CURVE_WITH_KNOTS((3,3),(-0.937625715295863,-0.240675150179699),
 .UNSPECIFIED.)
CURVE()
GEOMETRIC_REPRESENTATION_ITEM()
RATIONAL_B_SPLINE_CURVE((1.1678700203076,1.34854014120617,1.1678700203076))
REPRESENTATION_ITEM('')
);
#55=(
BOUNDED_CURVE()
B_SPLINE_CURVE(2,(#500,#501,#502),.UNSPECIFIED.,.F.,.F.)
B_SPLINE_CURVE_WITH_KNOTS((3,3),(0.240675150179699,0.937625715295864),
 .UNSPECIFIED.)
CURVE()
GEOMETRIC_REPRESENTATION_ITEM()
RATIONAL_B_SPLINE_CURVE((1.1678700203076,1.34854014120617,1.1678700203076))
REPRESENTATION_ITEM('')
);
#56=(
BOUNDED_CURVE()
B_SPLINE_CURVE(2,(#504,#505,#506),.UNSPECIFIED.,.F.,.F.)
B_SPLINE_CURVE_WITH_KNOTS((3,3),(0.240675150179699,0.937625715295864),
 .UNSPECIFIED.)
CURVE()
GEOMETRIC_REPRESENTATION_ITEM()
RATIONAL_B_SPLINE_CURVE((1.1678700203076,1.34854014120617,1.1678700203076))
REPRESENTATION_ITEM('')
);
#57=(
BOUNDED_CURVE()
B_SPLINE_CURVE(2,(#507,#508,#509),.UNSPECIFIED.,.F.,.F.)
B_SPLINE_CURVE_WITH_KNOTS((3,3),(0.240675150179701,0.937625715295863),
 .UNSPECIFIED.)
CURVE()
GEOMETRIC_REPRESENTATION_ITEM()
RATIONAL_B_SPLINE_CURVE((1.1678700203076,1.34854014120617,1.1678700203076))
REPRESENTATION_ITEM('')
);
#58=TOROIDAL_SURFACE('',#322,10.3075000000001,0.500000000000086);
#59=TOROIDAL_SURFACE('',#326,10.3075,0.499999999999938);
#60=TOROIDAL_SURFACE('',#351,11.2630729231274,1.475);
#61=CYLINDRICAL_SURFACE('',#318,11.025);
#62=CYLINDRICAL_SURFACE('',#324,9.80749999999999);
#63=CYLINDRICAL_SURFACE('',#328,12.75);
#64=CYLINDRICAL_SURFACE('',#335,5.99999999999999);
#65=FACE_BOUND('',#103,.T.);
#66=FACE_BOUND('',#105,.T.);
#67=FACE_BOUND('',#107,.T.);
#68=FACE_BOUND('',#109,.T.);
#69=FACE_BOUND('',#111,.T.);
#70=FACE_BOUND('',#113,.T.);
#71=FACE_BOUND('',#115,.T.);
#72=FACE_BOUND('',#117,.T.);
#73=FACE_BOUND('',#120,.T.);
#74=FACE_BOUND('',#122,.T.);
#75=FACE_BOUND('',#130,.T.);
#76=FACE_BOUND('',#132,.T.);
#77=FACE_BOUND('',#134,.T.);
#78=FACE_BOUND('',#136,.T.);
#79=FACE_OUTER_BOUND('',#102,.T.);
#80=FACE_OUTER_BOUND('',#104,.T.);
#81=FACE_OUTER_BOUND('',#106,.T.);
#82=FACE_OUTER_BOUND('',#108,.T.);
#83=FACE_OUTER_BOUND('',#110,.T.);
#84=FACE_OUTER_BOUND('',#112,.T.);
#85=FACE_OUTER_BOUND('',#114,.T.);
#86=FACE_OUTER_BOUND('',#116,.T.);
#87=FACE_OUTER_BOUND('',#118,.T.);
#88=FACE_OUTER_BOUND('',#119,.T.);
#89=FACE_OUTER_BOUND('',#121,.T.);
#90=FACE_OUTER_BOUND('',#123,.T.);
#91=FACE_OUTER_BOUND('',#124,.T.);
#92=FACE_OUTER_BOUND('',#125,.T.);
#93=FACE_OUTER_BOUND('',#126,.T.);
#94=FACE_OUTER_BOUND('',#127,.T.);
#95=FACE_OUTER_BOUND('',#128,.T.);
#96=FACE_OUTER_BOUND('',#129,.T.);
#97=FACE_OUTER_BOUND('',#131,.T.);
#98=FACE_OUTER_BOUND('',#133,.T.);
#99=FACE_OUTER_BOUND('',#135,.T.);
#100=FACE_OUTER_BOUND('',#137,.T.);
#101=FACE_OUTER_BOUND('',#138,.T.);
#102=EDGE_LOOP('',(#216));
#103=EDGE_LOOP('',(#217));
#104=EDGE_LOOP('',(#218));
#105=EDGE_LOOP('',(#219));
#106=EDGE_LOOP('',(#220));
#107=EDGE_LOOP('',(#221));
#108=EDGE_LOOP('',(#222));
#109=EDGE_LOOP('',(#223));
#110=EDGE_LOOP('',(#224));
#111=EDGE_LOOP('',(#225));
#112=EDGE_LOOP('',(#226));
#113=EDGE_LOOP('',(#227));
#114=EDGE_LOOP('',(#228));
#115=EDGE_LOOP('',(#229));
#116=EDGE_LOOP('',(#230));
#117=EDGE_LOOP('',(#231));
#118=EDGE_LOOP('',(#232));
#119=EDGE_LOOP('',(#233));
#120=EDGE_LOOP('',(#234));
#121=EDGE_LOOP('',(#235));
#122=EDGE_LOOP('',(#236,#237,#238,#239,#240,#241));
#123=EDGE_LOOP('',(#242,#243,#244,#245));
#124=EDGE_LOOP('',(#246,#247,#248,#249));
#125=EDGE_LOOP('',(#250,#251,#252,#253));
#126=EDGE_LOOP('',(#254,#255,#256,#257));
#127=EDGE_LOOP('',(#258,#259,#260,#261));
#128=EDGE_LOOP('',(#262,#263,#264,#265));
#129=EDGE_LOOP('',(#266));
#130=EDGE_LOOP('',(#267,#268,#269,#270,#271,#272));
#131=EDGE_LOOP('',(#273));
#132=EDGE_LOOP('',(#274));
#133=EDGE_LOOP('',(#275));
#134=EDGE_LOOP('',(#276));
#135=EDGE_LOOP('',(#277));
#136=EDGE_LOOP('',(#278));
#137=EDGE_LOOP('',(#279));
#138=EDGE_LOOP('',(#280,#282,#281,#283));
#139=CIRCLE('',#316,9.74999999999997);
#140=CIRCLE('',#317,11.025);
#141=CIRCLE('',#319,11.025);
#142=CIRCLE('',#321,10.0575);
#143=CIRCLE('',#323,9.8075);
#144=CIRCLE('',#325,9.80749999999998);
#145=CIRCLE('',#327,10.3075);
#146=CIRCLE('',#329,12.75);
#147=CIRCLE('',#330,12.75);
#148=CIRCLE('',#332,12.45);
#149=CIRCLE('',#334,4.99999999999999);
#150=CIRCLE('',#336,5.99999999999999);
#151=CIRCLE('',#337,5.99999999999999);
#152=CIRCLE('',#339,5.85);
#153=CIRCLE('',#352,1.475);
#154=CIRCLE('',#353,12.7380729231274);
#155=VERTEX_POINT('',#448);
#156=VERTEX_POINT('',#450);
#157=VERTEX_POINT('',#453);
#158=VERTEX_POINT('',#456);
#159=VERTEX_POINT('',#459);
#160=VERTEX_POINT('',#462);
#161=VERTEX_POINT('',#465);
#162=VERTEX_POINT('',#468);
#163=VERTEX_POINT('',#470);
#164=VERTEX_POINT('',#473);
#165=VERTEX_POINT('',#476);
#166=VERTEX_POINT('',#479);
#167=VERTEX_POINT('',#481);
#168=VERTEX_POINT('',#484);
#169=VERTEX_POINT('',#486);
#170=VERTEX_POINT('',#487);
#171=VERTEX_POINT('',#491);
#172=VERTEX_POINT('',#495);
#173=VERTEX_POINT('',#499);
#174=VERTEX_POINT('',#503);
#175=VERTEX_POINT('',#511);
#176=VERTEX_POINT('',#512);
#177=VERTEX_POINT('',#517);
#178=VERTEX_POINT('',#521);
#179=VERTEX_POINT('',#525);
#180=VERTEX_POINT('',#529);
#181=VERTEX_POINT('',#542);
#182=EDGE_CURVE('',#155,#155,#139,.T.);
#183=EDGE_CURVE('',#156,#156,#140,.T.);
#184=EDGE_CURVE('',#157,#157,#141,.T.);
#185=EDGE_CURVE('',#158,#158,#142,.T.);
#186=EDGE_CURVE('',#159,#159,#143,.T.);
#187=EDGE_CURVE('',#160,#160,#144,.T.);
#188=EDGE_CURVE('',#161,#161,#145,.T.);
#189=EDGE_CURVE('',#162,#162,#146,.T.);
#190=EDGE_CURVE('',#163,#163,#147,.T.);
#191=EDGE_CURVE('',#164,#164,#148,.T.);
#192=EDGE_CURVE('',#165,#165,#149,.T.);
#193=EDGE_CURVE('',#166,#166,#150,.T.);
#194=EDGE_CURVE('',#167,#167,#151,.T.);
#195=EDGE_CURVE('',#168,#168,#152,.T.);
#196=EDGE_CURVE('',#169,#170,#52,.F.);
#197=EDGE_CURVE('',#171,#169,#53,.F.);
#198=EDGE_CURVE('',#172,#171,#54,.F.);
#199=EDGE_CURVE('',#173,#172,#55,.F.);
#200=EDGE_CURVE('',#174,#173,#56,.F.);
#201=EDGE_CURVE('',#170,#174,#57,.F.);
#202=EDGE_CURVE('',#175,#176,#17,.T.);
#203=EDGE_CURVE('',#173,#176,#18,.T.);
#204=EDGE_CURVE('',#172,#175,#19,.T.);
#205=EDGE_CURVE('',#177,#175,#20,.T.);
#206=EDGE_CURVE('',#171,#177,#21,.T.);
#207=EDGE_CURVE('',#178,#177,#22,.T.);
#208=EDGE_CURVE('',#169,#178,#23,.T.);
#209=EDGE_CURVE('',#179,#178,#24,.T.);
#210=EDGE_CURVE('',#170,#179,#25,.T.);
#211=EDGE_CURVE('',#180,#179,#26,.T.);
#212=EDGE_CURVE('',#174,#180,#27,.T.);
#213=EDGE_CURVE('',#176,#180,#28,.T.);
#214=EDGE_CURVE('',#181,#181,#153,.T.);
#215=EDGE_CURVE('',#181,#181,#154,.T.);
#216=ORIENTED_EDGE('',*,*,#182,.F.);
#217=ORIENTED_EDGE('',*,*,#183,.T.);
#218=ORIENTED_EDGE('',*,*,#183,.F.);
#219=ORIENTED_EDGE('',*,*,#184,.T.);
#220=ORIENTED_EDGE('',*,*,#184,.F.);
#221=ORIENTED_EDGE('',*,*,#185,.T.);
#222=ORIENTED_EDGE('',*,*,#185,.F.);
#223=ORIENTED_EDGE('',*,*,#186,.T.);
#224=ORIENTED_EDGE('',*,*,#186,.F.);
#225=ORIENTED_EDGE('',*,*,#187,.T.);
#226=ORIENTED_EDGE('',*,*,#187,.F.);
#227=ORIENTED_EDGE('',*,*,#188,.T.);
#228=ORIENTED_EDGE('',*,*,#189,.F.);
#229=ORIENTED_EDGE('',*,*,#190,.T.);
#230=ORIENTED_EDGE('',*,*,#189,.T.);
#231=ORIENTED_EDGE('',*,*,#191,.T.);
#232=ORIENTED_EDGE('',*,*,#192,.F.);
#233=ORIENTED_EDGE('',*,*,#193,.F.);
#234=ORIENTED_EDGE('',*,*,#194,.T.);
#235=ORIENTED_EDGE('',*,*,#195,.F.);
#236=ORIENTED_EDGE('',*,*,#196,.F.);
#237=ORIENTED_EDGE('',*,*,#197,.F.);
#238=ORIENTED_EDGE('',*,*,#198,.F.);
#239=ORIENTED_EDGE('',*,*,#199,.F.);
#240=ORIENTED_EDGE('',*,*,#200,.F.);
#241=ORIENTED_EDGE('',*,*,#201,.F.);
#242=ORIENTED_EDGE('',*,*,#202,.T.);
#243=ORIENTED_EDGE('',*,*,#203,.F.);
#244=ORIENTED_EDGE('',*,*,#199,.T.);
#245=ORIENTED_EDGE('',*,*,#204,.T.);
#246=ORIENTED_EDGE('',*,*,#205,.T.);
#247=ORIENTED_EDGE('',*,*,#204,.F.);
#248=ORIENTED_EDGE('',*,*,#198,.T.);
#249=ORIENTED_EDGE('',*,*,#206,.T.);
#250=ORIENTED_EDGE('',*,*,#207,.T.);
#251=ORIENTED_EDGE('',*,*,#206,.F.);
#252=ORIENTED_EDGE('',*,*,#197,.T.);
#253=ORIENTED_EDGE('',*,*,#208,.T.);
#254=ORIENTED_EDGE('',*,*,#209,.T.);
#255=ORIENTED_EDGE('',*,*,#208,.F.);
#256=ORIENTED_EDGE('',*,*,#196,.T.);
#257=ORIENTED_EDGE('',*,*,#210,.T.);
#258=ORIENTED_EDGE('',*,*,#211,.T.);
#259=ORIENTED_EDGE('',*,*,#210,.F.);
#260=ORIENTED_EDGE('',*,*,#201,.T.);
#261=ORIENTED_EDGE('',*,*,#212,.T.);
#262=ORIENTED_EDGE('',*,*,#213,.T.);
#263=ORIENTED_EDGE('',*,*,#212,.F.);
#264=ORIENTED_EDGE('',*,*,#200,.T.);
#265=ORIENTED_EDGE('',*,*,#203,.T.);
#266=ORIENTED_EDGE('',*,*,#193,.T.);
#267=ORIENTED_EDGE('',*,*,#209,.F.);
#268=ORIENTED_EDGE('',*,*,#211,.F.);
#269=ORIENTED_EDGE('',*,*,#213,.F.);
#270=ORIENTED_EDGE('',*,*,#202,.F.);
#271=ORIENTED_EDGE('',*,*,#205,.F.);
#272=ORIENTED_EDGE('',*,*,#207,.F.);
#273=ORIENTED_EDGE('',*,*,#194,.F.);
#274=ORIENTED_EDGE('',*,*,#192,.T.);
#275=ORIENTED_EDGE('',*,*,#191,.F.);
#276=ORIENTED_EDGE('',*,*,#195,.T.);
#277=ORIENTED_EDGE('',*,*,#190,.F.);
#278=ORIENTED_EDGE('',*,*,#188,.F.);
#279=ORIENTED_EDGE('',*,*,#182,.T.);
#280=ORIENTED_EDGE('',*,*,#214,.T.);
#281=ORIENTED_EDGE('',*,*,#214,.F.);
#282=ORIENTED_EDGE('',*,*,#215,.T.);
#283=ORIENTED_EDGE('',*,*,#215,.F.);
#284=CONICAL_SURFACE('',#315,10.3875,37.);
#285=CONICAL_SURFACE('',#320,10.54125,60.);
#286=CONICAL_SURFACE('',#331,12.6,45.);
#287=CONICAL_SURFACE('',#333,2.49999999999999,60.);
#288=CONICAL_SURFACE('',#338,5.42499999999999,60.);
#289=ADVANCED_FACE('',(#79,#65),#284,.T.);
#290=ADVANCED_FACE('',(#80,#66),#61,.T.);
#291=ADVANCED_FACE('',(#81,#67),#285,.T.);
#292=ADVANCED_FACE('',(#82,#68),#58,.F.);
#293=ADVANCED_FACE('',(#83,#69),#62,.T.);
#294=ADVANCED_FACE('',(#84,#70),#59,.F.);
#295=ADVANCED_FACE('',(#85,#71),#63,.T.);
#296=ADVANCED_FACE('',(#86,#72),#286,.T.);
#297=ADVANCED_FACE('',(#87),#287,.F.);
#298=ADVANCED_FACE('',(#88,#73),#64,.F.);
#299=ADVANCED_FACE('',(#89,#74),#288,.F.);
#300=ADVANCED_FACE('',(#90),#41,.F.);
#301=ADVANCED_FACE('',(#91),#42,.F.);
#302=ADVANCED_FACE('',(#92),#43,.F.);
#303=ADVANCED_FACE('',(#93),#44,.F.);
#304=ADVANCED_FACE('',(#94),#45,.F.);
#305=ADVANCED_FACE('',(#95),#46,.F.);
#306=ADVANCED_FACE('',(#96,#75),#47,.F.);
#307=ADVANCED_FACE('',(#97,#76),#48,.F.);
#308=ADVANCED_FACE('',(#98,#77),#49,.F.);
#309=ADVANCED_FACE('',(#99,#78),#50,.T.);
#310=ADVANCED_FACE('',(#100),#51,.T.);
#311=ADVANCED_FACE('',(#101),#60,.T.);
#312=CLOSED_SHELL('',(#289,#290,#291,#292,#293,#294,#295,#296,#297,#298,
#299,#300,#301,#302,#303,#304,#305,#306,#307,#308,#309,#310));
#313=CLOSED_SHELL('',(#311));
#314=AXIS2_PLACEMENT_3D('placement',#446,#354,#355);
#315=AXIS2_PLACEMENT_3D('',#447,#356,#357);
#316=AXIS2_PLACEMENT_3D('',#449,#358,#359);
#317=AXIS2_PLACEMENT_3D('',#451,#360,#361);
#318=AXIS2_PLACEMENT_3D('',#452,#362,#363);
#319=AXIS2_PLACEMENT_3D('',#454,#364,#365);
#320=AXIS2_PLACEMENT_3D('',#455,#366,#367);
#321=AXIS2_PLACEMENT_3D('',#457,#368,#369);
#322=AXIS2_PLACEMENT_3D('',#458,#370,#371);
#323=AXIS2_PLACEMENT_3D('',#460,#372,#373);
#324=AXIS2_PLACEMENT_3D('',#461,#374,#375);
#325=AXIS2_PLACEMENT_3D('',#463,#376,#377);
#326=AXIS2_PLACEMENT_3D('',#464,#378,#379);
#327=AXIS2_PLACEMENT_3D('',#466,#380,#381);
#328=AXIS2_PLACEMENT_3D('',#467,#382,#383);
#329=AXIS2_PLACEMENT_3D('',#469,#384,#385);
#330=AXIS2_PLACEMENT_3D('',#471,#386,#387);
#331=AXIS2_PLACEMENT_3D('',#472,#388,#389);
#332=AXIS2_PLACEMENT_3D('',#474,#390,#391);
#333=AXIS2_PLACEMENT_3D('',#475,#392,#393);
#334=AXIS2_PLACEMENT_3D('',#477,#394,#395);
#335=AXIS2_PLACEMENT_3D('',#478,#396,#397);
#336=AXIS2_PLACEMENT_3D('',#480,#398,#399);
#337=AXIS2_PLACEMENT_3D('',#482,#400,#401);
#338=AXIS2_PLACEMENT_3D('',#483,#402,#403);
#339=AXIS2_PLACEMENT_3D('',#485,#404,#405);
#340=AXIS2_PLACEMENT_3D('',#510,#406,#407);
#341=AXIS2_PLACEMENT_3D('',#516,#411,#412);
#342=AXIS2_PLACEMENT_3D('',#520,#415,#416);
#343=AXIS2_PLACEMENT_3D('',#524,#419,#420);
#344=AXIS2_PLACEMENT_3D('',#528,#423,#424);
#345=AXIS2_PLACEMENT_3D('',#532,#427,#428);
#346=AXIS2_PLACEMENT_3D('',#534,#430,#431);
#347=AXIS2_PLACEMENT_3D('',#535,#432,#433);
#348=AXIS2_PLACEMENT_3D('',#536,#434,#435);
#349=AXIS2_PLACEMENT_3D('',#537,#436,#437);
#350=AXIS2_PLACEMENT_3D('',#538,#438,#439);
#351=AXIS2_PLACEMENT_3D('',#539,#440,#441);
#352=AXIS2_PLACEMENT_3D('',#540,#442,#443);
#353=AXIS2_PLACEMENT_3D('',#541,#444,#445);
#354=DIRECTION('axis',(0.,0.,1.));
#355=DIRECTION('refdir',(1.,0.,0.));
#356=DIRECTION('center_axis',(-1.,0.,0.));
#357=DIRECTION('ref_axis',(0.,1.,0.));
#358=DIRECTION('center_axis',(1.,0.,0.));
#359=DIRECTION('ref_axis',(0.,1.,0.));
#360=DIRECTION('center_axis',(1.,0.,0.));
#361=DIRECTION('ref_axis',(0.,1.,0.));
#362=DIRECTION('center_axis',(1.,0.,0.));
#363=DIRECTION('ref_axis',(0.,1.,0.));
#364=DIRECTION('center_axis',(1.,0.,0.));
#365=DIRECTION('ref_axis',(0.,1.,0.));
#366=DIRECTION('center_axis',(1.,0.,0.));
#367=DIRECTION('ref_axis',(0.,1.,0.));
#368=DIRECTION('center_axis',(1.,0.,0.));
#369=DIRECTION('ref_axis',(0.,1.,0.));
#370=DIRECTION('center_axis',(1.,-1.95189338136799E-16,-7.93738135326393E-15));
#371=DIRECTION('ref_axis',(-7.93053134407223E-15,0.,-1.));
#372=DIRECTION('center_axis',(1.,0.,0.));
#373=DIRECTION('ref_axis',(0.,1.,0.));
#374=DIRECTION('center_axis',(1.,0.,0.));
#375=DIRECTION('ref_axis',(0.,1.,0.));
#376=DIRECTION('center_axis',(1.,0.,0.));
#377=DIRECTION('ref_axis',(0.,1.,0.));
#378=DIRECTION('center_axis',(1.,-1.66731909198673E-16,-6.09372486507012E-15));
#379=DIRECTION('ref_axis',(-6.08144372498817E-15,0.,-1.));
#380=DIRECTION('center_axis',(1.,0.,0.));
#381=DIRECTION('ref_axis',(0.,1.,0.));
#382=DIRECTION('center_axis',(-1.,0.,0.));
#383=DIRECTION('ref_axis',(0.,1.,0.));
#384=DIRECTION('center_axis',(-1.,0.,0.));
#385=DIRECTION('ref_axis',(0.,-1.,0.));
#386=DIRECTION('center_axis',(-1.,0.,0.));
#387=DIRECTION('ref_axis',(0.,1.,0.));
#388=DIRECTION('center_axis',(1.,0.,0.));
#389=DIRECTION('ref_axis',(0.,-1.,0.));
#390=DIRECTION('center_axis',(1.,0.,0.));
#391=DIRECTION('ref_axis',(0.,-1.,0.));
#392=DIRECTION('center_axis',(-1.,3.074233E-17,0.));
#393=DIRECTION('ref_axis',(3.074233E-17,1.,0.));
#394=DIRECTION('center_axis',(1.,0.,0.));
#395=DIRECTION('ref_axis',(0.,1.,0.));
#396=DIRECTION('center_axis',(1.,-3.074233E-17,0.));
#397=DIRECTION('ref_axis',(3.074233E-17,1.,0.));
#398=DIRECTION('center_axis',(1.,0.,0.));
#399=DIRECTION('ref_axis',(0.,1.,0.));
#400=DIRECTION('center_axis',(1.,0.,0.));
#401=DIRECTION('ref_axis',(0.,1.,0.));
#402=DIRECTION('center_axis',(-1.,3.074233E-17,0.));
#403=DIRECTION('ref_axis',(3.074233E-17,1.,0.));
#404=DIRECTION('center_axis',(1.,0.,0.));
#405=DIRECTION('ref_axis',(0.,1.,0.));
#406=DIRECTION('center_axis',(4.358715E-16,0.866025403784439,0.499999999999999));
#407=DIRECTION('ref_axis',(0.,0.499999999999999,-0.866025403784439));
#408=DIRECTION('',(0.,-0.499999999999999,0.866025403784439));
#409=DIRECTION('',(1.,0.,0.));
#410=DIRECTION('',(1.,0.,0.));
#411=DIRECTION('center_axis',(4.358715E-16,0.866025403784438,-0.500000000000001));
#412=DIRECTION('ref_axis',(0.,-0.500000000000001,-0.866025403784438));
#413=DIRECTION('',(0.,0.500000000000001,0.866025403784438));
#414=DIRECTION('',(1.,0.,0.));
#415=DIRECTION('center_axis',(0.,0.,-1.));
#416=DIRECTION('ref_axis',(0.,-1.,0.));
#417=DIRECTION('',(0.,1.,0.));
#418=DIRECTION('',(1.,0.,0.));
#419=DIRECTION('center_axis',(-4.358715E-16,-0.866025403784439,-0.499999999999999));
#420=DIRECTION('ref_axis',(0.,-0.499999999999999,0.866025403784439));
#421=DIRECTION('',(1.230696E-15,0.499999999999998,-0.86602540378444));
#422=DIRECTION('',(1.,0.,0.));
#423=DIRECTION('center_axis',(-4.358715E-16,-0.866025403784438,0.500000000000001));
#424=DIRECTION('ref_axis',(0.,0.500000000000001,0.866025403784438));
#425=DIRECTION('',(-1.230696E-15,-0.5,-0.866025403784438));
#426=DIRECTION('',(1.,0.,0.));
#427=DIRECTION('center_axis',(0.,0.,1.));
#428=DIRECTION('ref_axis',(0.,1.,0.));
#429=DIRECTION('',(0.,-1.,0.));
#430=DIRECTION('center_axis',(-1.,0.,0.));
#431=DIRECTION('ref_axis',(0.,0.,1.));
#432=DIRECTION('center_axis',(1.,0.,0.));
#433=DIRECTION('ref_axis',(0.,0.,-1.));
#434=DIRECTION('center_axis',(1.,0.,0.));
#435=DIRECTION('ref_axis',(0.,0.,-1.));
#436=DIRECTION('center_axis',(1.,0.,0.));
#437=DIRECTION('ref_axis',(0.,0.,-1.));
#438=DIRECTION('center_axis',(1.,0.,0.));
#439=DIRECTION('ref_axis',(0.,0.,-1.));
#440=DIRECTION('center_axis',(-0.99999283812488,-0.00378466629287473,0.));
#441=DIRECTION('ref_axis',(0.,0.,1.));
#442=DIRECTION('center_axis',(0.00378466629287473,-0.99999283812488,0.));
#443=DIRECTION('ref_axis',(0.,0.,1.));
#444=DIRECTION('center_axis',(0.99999283812488,0.00378466629287473,0.));
#445=DIRECTION('ref_axis',(0.,0.,1.));
#446=CARTESIAN_POINT('',(0.,0.,0.));
#447=CARTESIAN_POINT('Origin',(6.67230162004713,1.89024389144709,0.));
#448=CARTESIAN_POINT('',(7.51829269383013,-7.85975610855288,1.193991E-15));
#449=CARTESIAN_POINT('Origin',(7.51829269383013,1.89024389144709,0.));
#450=CARTESIAN_POINT('',(5.82631054626403,-9.13475610855291,1.350129E-15));
#451=CARTESIAN_POINT('Origin',(5.82631054626403,1.89024389144709,0.));
#452=CARTESIAN_POINT('Origin',(2.09876359641627,1.89024389144709,0.));
#453=CARTESIAN_POINT('',(-1.6287833534315,-9.13475610855291,1.350129E-15));
#454=CARTESIAN_POINT('Origin',(-1.6287833534315,1.89024389144709,0.));
#455=CARTESIAN_POINT('Origin',(-1.90807654615199,1.89024389144709,0.));
#456=CARTESIAN_POINT('',(-2.18736973887248,1.89024389144709,-10.0575));
#457=CARTESIAN_POINT('Origin',(-2.18736973887248,1.89024389144709,0.));
#458=CARTESIAN_POINT('Origin',(-2.62038244076476,1.89024389144703,-2.09277040141842E-13));
#459=CARTESIAN_POINT('',(-2.62038244076467,-7.91725610855291,1.201033E-15));
#460=CARTESIAN_POINT('Origin',(-2.62038244076467,1.89024389144709,0.));
#461=CARTESIAN_POINT('Origin',(-3.65104487346727,1.89024389144709,0.));
#462=CARTESIAN_POINT('',(-4.68170730616987,1.89024389144709,-9.80749999999998));
#463=CARTESIAN_POINT('Origin',(-4.68170730616987,1.89024389144709,0.));
#464=CARTESIAN_POINT('Origin',(-4.68170730616994,1.89024389144705,-1.52100554373646E-13));
#465=CARTESIAN_POINT('',(-5.18170730616989,12.1977438914471,0.));
#466=CARTESIAN_POINT('Origin',(-5.18170730616989,1.89024389144709,0.));
#467=CARTESIAN_POINT('Origin',(-5.18170730616988,1.89024389144709,0.));
#468=CARTESIAN_POINT('',(-8.68170730616988,-10.8597561085529,1.561373E-15));
#469=CARTESIAN_POINT('Origin',(-8.68170730616988,1.89024389144709,0.));
#470=CARTESIAN_POINT('',(-5.18170730616988,-10.8597561085529,-1.561373E-15));
#471=CARTESIAN_POINT('Origin',(-5.18170730616988,1.89024389144709,0.));
#472=CARTESIAN_POINT('Origin',(-8.83170730616988,1.89024389144709,0.));
#473=CARTESIAN_POINT('',(-8.98170730616988,14.3402438914471,0.));
#474=CARTESIAN_POINT('Origin',(-8.98170730616988,1.89024389144709,0.));
#475=CARTESIAN_POINT('Origin',(-0.0383316331958095,1.89024389144709,0.));
#476=CARTESIAN_POINT('',(-1.48170730616987,6.22037091036929,2.5));
#477=CARTESIAN_POINT('Origin',(-1.48170730616987,1.89024389144709,0.));
#478=CARTESIAN_POINT('Origin',(-2.23170730616987,1.89024389144708,0.));
#479=CARTESIAN_POINT('',(-2.98170730616987,-4.10975610855291,7.347638E-16));
#480=CARTESIAN_POINT('Origin',(-2.98170730616987,1.89024389144708,0.));
#481=CARTESIAN_POINT('',(-1.48170730616987,-4.1097561085529,7.347638E-16));
#482=CARTESIAN_POINT('Origin',(-1.48170730616987,1.89024389144709,0.));
#483=CARTESIAN_POINT('Origin',(-8.73633344176428,1.89024389144709,0.));
#484=CARTESIAN_POINT('',(-8.98170730616988,-3.95975610855291,7.163947E-16));
#485=CARTESIAN_POINT('Origin',(-8.98170730616988,1.89024389144709,0.));
#486=CARTESIAN_POINT('',(-8.9375415647439,-0.99650745450104,-5.));
#487=CARTESIAN_POINT('',(-8.9375415647439,-3.88325880044916,7.549517E-15));
#488=CARTESIAN_POINT('Ctrl Pts',(-8.9375415647439,-3.88325880044917,3.61242896916252E-15));
#489=CARTESIAN_POINT('Ctrl Pts',(-8.10420823141057,-2.43988312747511,-2.5));
#490=CARTESIAN_POINT('Ctrl Pts',(-8.9375415647439,-0.996507454501041,-5.));
#491=CARTESIAN_POINT('',(-8.9375415647439,4.77699523739522,-5.));
#492=CARTESIAN_POINT('Ctrl Pts',(-8.9375415647439,-0.996507454501041,-5.));
#493=CARTESIAN_POINT('Ctrl Pts',(-8.10420823141057,1.89024389144709,-5.));
#494=CARTESIAN_POINT('Ctrl Pts',(-8.9375415647439,4.77699523739522,-5.));
#495=CARTESIAN_POINT('',(-8.9375415647439,7.66374658334335,-7.105427E-15));
#496=CARTESIAN_POINT('Ctrl Pts',(-8.9375415647439,4.77699523739522,-5.));
#497=CARTESIAN_POINT('Ctrl Pts',(-8.10420823141057,6.22037091036928,-2.5));
#498=CARTESIAN_POINT('Ctrl Pts',(-8.9375415647439,7.66374658334335,-6.27421873591385E-15));
#499=CARTESIAN_POINT('',(-8.9375415647439,4.77699523739522,5.));
#500=CARTESIAN_POINT('Ctrl Pts',(-8.9375415647439,7.66374658334335,-8.17549714073622E-15));
#501=CARTESIAN_POINT('Ctrl Pts',(-8.10420823141057,6.22037091036929,2.5));
#502=CARTESIAN_POINT('Ctrl Pts',(-8.9375415647439,4.77699523739522,5.));
#503=CARTESIAN_POINT('',(-8.9375415647439,-0.99650745450104,5.));
#504=CARTESIAN_POINT('Ctrl Pts',(-8.9375415647439,4.77699523739522,5.));
#505=CARTESIAN_POINT('Ctrl Pts',(-8.10420823141057,1.89024389144709,5.));
#506=CARTESIAN_POINT('Ctrl Pts',(-8.9375415647439,-0.996507454501041,5.));
#507=CARTESIAN_POINT('Ctrl Pts',(-8.9375415647439,-0.996507454501041,4.99999999999999));
#508=CARTESIAN_POINT('Ctrl Pts',(-8.10420823141057,-2.4398831274751,2.5));
#509=CARTESIAN_POINT('Ctrl Pts',(-8.9375415647439,-3.88325880044916,1.01718394657997E-14));
#510=CARTESIAN_POINT('Origin',(-8.98170730616988,4.77699523739522,5.));
#511=CARTESIAN_POINT('',(-2.98170730616987,7.66374658334334,-7.105427E-15));
#512=CARTESIAN_POINT('',(-2.98170730616987,4.77699523739522,5.));
#513=CARTESIAN_POINT('',(-2.98170730616987,7.66374658334334,-7.105427E-15));
#514=CARTESIAN_POINT('',(-8.9375415647439,4.77699523739522,5.));
#515=CARTESIAN_POINT('',(-8.9375415647439,7.66374658334335,-7.105427E-15));
#516=CARTESIAN_POINT('Origin',(-8.98170730616986,7.66374658334335,-7.105427E-15));
#517=CARTESIAN_POINT('',(-2.98170730616987,4.77699523739521,-5.));
#518=CARTESIAN_POINT('',(-2.98170730616987,4.77699523739521,-5.));
#519=CARTESIAN_POINT('',(-8.9375415647439,4.77699523739522,-5.));
#520=CARTESIAN_POINT('Origin',(-8.98170730616988,4.77699523739522,-5.));
#521=CARTESIAN_POINT('',(-2.98170730616987,-0.99650745450105,-5.));
#522=CARTESIAN_POINT('',(-2.98170730616987,-0.99650745450105,-5.));
#523=CARTESIAN_POINT('',(-8.9375415647439,-0.99650745450104,-5.));
#524=CARTESIAN_POINT('Origin',(-8.98170730616992,-0.99650745450104,-5.));
#525=CARTESIAN_POINT('',(-2.98170730616988,-3.88325880044917,7.549517E-15));
#526=CARTESIAN_POINT('',(-2.98170730616988,-3.88325880044917,7.549517E-15));
#527=CARTESIAN_POINT('',(-8.9375415647439,-3.88325880044916,7.549517E-15));
#528=CARTESIAN_POINT('Origin',(-8.98170730616994,-3.88325880044916,7.549517E-15));
#529=CARTESIAN_POINT('',(-2.98170730616987,-0.99650745450104,5.));
#530=CARTESIAN_POINT('',(-2.98170730616987,-0.99650745450104,5.));
#531=CARTESIAN_POINT('',(-8.9375415647439,-0.99650745450104,5.));
#532=CARTESIAN_POINT('Origin',(-8.98170730616992,-0.99650745450104,5.));
#533=CARTESIAN_POINT('',(-2.98170730616987,4.77699523739522,5.));
#534=CARTESIAN_POINT('Origin',(-2.98170730616987,7.39024389144708,0.));
#535=CARTESIAN_POINT('Origin',(-1.48170730616987,7.39024389144708,0.));
#536=CARTESIAN_POINT('Origin',(-8.98170730616988,3.049334800538,8.074349E-17));
#537=CARTESIAN_POINT('Origin',(-5.18170730616988,3.049334800538,8.074349E-17));
#538=CARTESIAN_POINT('Origin',(7.51829269383013,6.76524389144708,0.));
#539=CARTESIAN_POINT('Origin',(-3.74933427861623,1.87073614985273,0.));
#540=CARTESIAN_POINT('Origin',(-3.74933427861623,1.87073614985273,11.2630729231274));
#541=CARTESIAN_POINT('Origin',(-3.74933427861623,1.87073614985273,0.));
#542=CARTESIAN_POINT('',(-3.74933427861623,1.87073614985273,12.7380729231274));
#543=UNCERTAINTY_MEASURE_WITH_UNIT(LENGTH_MEASURE(0.01),#547,
'DISTANCE_ACCURACY_VALUE',
'Maximum model space distance between geometric entities at asserted c
onnectivities');
#544=UNCERTAINTY_MEASURE_WITH_UNIT(LENGTH_MEASURE(1.E-6),#547,
'DISTANCE_ACCURACY_VALUE',
'Maximum model space distance between geometric entities at asserted c
onnectivities');
#545=(
GEOMETRIC_REPRESENTATION_CONTEXT(3)
GLOBAL_UNCERTAINTY_ASSIGNED_CONTEXT((#543))
GLOBAL_UNIT_ASSIGNED_CONTEXT((#547,#550,#548))
REPRESENTATION_CONTEXT('','3D')
);
#546=(
GEOMETRIC_REPRESENTATION_CONTEXT(3)
GLOBAL_UNCERTAINTY_ASSIGNED_CONTEXT((#544))
GLOBAL_UNIT_ASSIGNED_CONTEXT((#547,#550,#548))
REPRESENTATION_CONTEXT('','3D')
);
#547=(
LENGTH_UNIT()
NAMED_UNIT(*)
SI_UNIT(.MILLI.,.METRE.)
);
#548=(
NAMED_UNIT(*)
SI_UNIT($,.STERADIAN.)
SOLID_ANGLE_UNIT()
);
#549=DIMENSIONAL_EXPONENTS(0.,0.,0.,0.,0.,0.,0.);
#550=(
CONVERSION_BASED_UNIT('degree',#552)
NAMED_UNIT(#549)
PLANE_ANGLE_UNIT()
);
#551=(
NAMED_UNIT(*)
PLANE_ANGLE_UNIT()
SI_UNIT($,.RADIAN.)
);
#552=PLANE_ANGLE_MEASURE_WITH_UNIT(PLANE_ANGLE_MEASURE(0.01745329252),#551);
#553=SHAPE_DEFINITION_REPRESENTATION(#554,#555);
#554=PRODUCT_DEFINITION_SHAPE('',$,#557);
#555=SHAPE_REPRESENTATION('',(#314),#545);
#556=PRODUCT_DEFINITION_CONTEXT('part definition',#561,'design');
#557=PRODUCT_DEFINITION('207505','207505',#558,#556);
#558=PRODUCT_DEFINITION_FORMATION('',$,#563);
#559=PRODUCT_RELATED_PRODUCT_CATEGORY('207505','207505',(#563));
#560=APPLICATION_PROTOCOL_DEFINITION('international standard',
'automotive_design',2009,#561);
#561=APPLICATION_CONTEXT(
'Core Data for Automotive Mechanical Design Process');
#562=PRODUCT_CONTEXT('part definition',#561,'mechanical');
#563=PRODUCT('207505','207505',$,(#562));
#564=PRESENTATION_STYLE_ASSIGNMENT((#565));
#565=SURFACE_STYLE_USAGE(.BOTH.,#566);
#566=SURFACE_SIDE_STYLE($,(#567));
#567=SURFACE_STYLE_FILL_AREA(#568);
#568=FILL_AREA_STYLE($,(#569));
#569=FILL_AREA_STYLE_COLOUR($,#570);
#570=COLOUR_RGB('',0.749019607843137,0.749019607843137,0.749019607843137);
ENDSEC;
END-ISO-10303-21;
