ISO-10303-21;
HEADER;
/* Generated by software containing ST-Developer
 * from STEP Tools, Inc. (www.steptools.com) 
 */

FILE_DESCRIPTION(
/* description */ (''),
/* implementation_level */ '2;1');

FILE_NAME(
/* name */ 
'C:\\Users\\enginyeria\\Desktop\\stp ventosas roscas\\vsa63m10.stp',
/* time_stamp */ '2020-10-06T16:05:45+02:00',
/* author */ ('enginyeria'),
/* organization */ (''),
/* preprocessor_version */ 'ST-DEVELOPER v17.2',
/* originating_system */ 'Autodesk Inventor 2019',
/* authorisation */ '');

FILE_SCHEMA (('CONFIG_CONTROL_DESIGN'));
ENDSEC;

DATA;
#10=MECHANICAL_DESIGN_GEOMETRIC_PRESENTATION_REPRESENTATION('',(#231,#232,
#233,#234,#235,#236,#237,#238,#239,#240,#241,#242,#243,#244,#245),#494);
#11=SHAPE_REPRESENTATION_RELATIONSHIP('SRR','None',#501,#12);
#12=ADVANCED_BREP_SHAPE_REPRESENTATION('',(#13),#493);
#13=MANIFOLD_SOLID_BREP('S\X\F3lido2',#260);
#14=TOROIDAL_SURFACE('',#299,10.,1.);
#15=TOROIDAL_SURFACE('',#310,31.3714318952248,1.00000000000005);
#16=TOROIDAL_SURFACE('',#317,31.5,0.25);
#17=FACE_BOUND('',#46,.T.);
#18=FACE_BOUND('',#50,.T.);
#19=FACE_BOUND('',#53,.T.);
#20=FACE_BOUND('',#57,.T.);
#21=PLANE('',#287);
#22=PLANE('',#296);
#23=PLANE('',#303);
#24=PLANE('',#314);
#25=PLANE('',#321);
#26=PLANE('',#322);
#27=CYLINDRICAL_SURFACE('',#284,1.5);
#28=CYLINDRICAL_SURFACE('',#293,5.);
#29=FACE_OUTER_BOUND('',#43,.T.);
#30=FACE_OUTER_BOUND('',#44,.T.);
#31=FACE_OUTER_BOUND('',#45,.T.);
#32=FACE_OUTER_BOUND('',#47,.T.);
#33=FACE_OUTER_BOUND('',#48,.T.);
#34=FACE_OUTER_BOUND('',#49,.T.);
#35=FACE_OUTER_BOUND('',#51,.T.);
#36=FACE_OUTER_BOUND('',#52,.T.);
#37=FACE_OUTER_BOUND('',#54,.T.);
#38=FACE_OUTER_BOUND('',#55,.T.);
#39=FACE_OUTER_BOUND('',#56,.T.);
#40=FACE_OUTER_BOUND('',#58,.T.);
#41=FACE_OUTER_BOUND('',#59,.T.);
#42=FACE_OUTER_BOUND('',#60,.T.);
#43=EDGE_LOOP('',(#160,#161,#162,#163,#164));
#44=EDGE_LOOP('',(#165,#166,#167,#168,#169,#170));
#45=EDGE_LOOP('',(#171,#172));
#46=EDGE_LOOP('',(#173));
#47=EDGE_LOOP('',(#174,#175,#176,#177,#178,#179));
#48=EDGE_LOOP('',(#180,#181,#182,#183,#184,#185));
#49=EDGE_LOOP('',(#186,#187));
#50=EDGE_LOOP('',(#188,#189));
#51=EDGE_LOOP('',(#190,#191,#192,#193,#194,#195));
#52=EDGE_LOOP('',(#196,#197));
#53=EDGE_LOOP('',(#198,#199));
#54=EDGE_LOOP('',(#200,#201,#202,#203,#204,#205,#206));
#55=EDGE_LOOP('',(#207,#208,#209,#210,#211,#212,#213));
#56=EDGE_LOOP('',(#214,#215));
#57=EDGE_LOOP('',(#216,#217));
#58=EDGE_LOOP('',(#218,#219,#220,#221,#222,#223));
#59=EDGE_LOOP('',(#224,#225));
#60=EDGE_LOOP('',(#226,#227));
#61=LINE('',#422,#66);
#62=LINE('',#427,#67);
#63=LINE('',#441,#68);
#64=LINE('',#447,#69);
#65=LINE('',#471,#70);
#66=VECTOR('',#329,1.6);
#67=VECTOR('',#336,1.5);
#68=VECTOR('',#353,4.5);
#69=VECTOR('',#360,5.);
#70=VECTOR('',#389,21.7866952631469);
#71=CIRCLE('',#281,1.5);
#72=CIRCLE('',#282,1.7);
#73=CIRCLE('',#283,1.5);
#74=CIRCLE('',#285,1.5);
#75=CIRCLE('',#286,1.5);
#76=CIRCLE('',#288,4.);
#77=CIRCLE('',#289,4.);
#78=CIRCLE('',#291,5.);
#79=CIRCLE('',#292,5.);
#80=CIRCLE('',#294,5.);
#81=CIRCLE('',#295,5.);
#82=CIRCLE('',#297,9.00000000000003);
#83=CIRCLE('',#298,9.00000000000003);
#84=CIRCLE('',#300,11.);
#85=CIRCLE('',#301,11.);
#86=CIRCLE('',#302,1.);
#87=CIRCLE('',#304,13.);
#88=CIRCLE('',#305,13.);
#89=CIRCLE('',#307,30.5733905262938);
#90=CIRCLE('',#308,30.5733905262938);
#91=CIRCLE('',#309,30.5733905262938);
#92=CIRCLE('',#311,31.3714318952248);
#93=CIRCLE('',#312,31.3714318952248);
#94=CIRCLE('',#313,1.00000000000005);
#95=CIRCLE('',#315,31.5);
#96=CIRCLE('',#316,31.5);
#97=CIRCLE('',#318,31.5);
#98=CIRCLE('',#319,31.5);
#99=CIRCLE('',#320,0.25);
#100=VERTEX_POINT('',#418);
#101=VERTEX_POINT('',#419);
#102=VERTEX_POINT('',#421);
#103=VERTEX_POINT('',#426);
#104=VERTEX_POINT('',#428);
#105=VERTEX_POINT('',#432);
#106=VERTEX_POINT('',#433);
#107=VERTEX_POINT('',#437);
#108=VERTEX_POINT('',#438);
#109=VERTEX_POINT('',#443);
#110=VERTEX_POINT('',#444);
#111=VERTEX_POINT('',#449);
#112=VERTEX_POINT('',#450);
#113=VERTEX_POINT('',#454);
#114=VERTEX_POINT('',#455);
#115=VERTEX_POINT('',#460);
#116=VERTEX_POINT('',#461);
#117=VERTEX_POINT('',#465);
#118=VERTEX_POINT('',#466);
#119=VERTEX_POINT('',#468);
#120=VERTEX_POINT('',#473);
#121=VERTEX_POINT('',#474);
#122=VERTEX_POINT('',#479);
#123=VERTEX_POINT('',#480);
#124=VERTEX_POINT('',#484);
#125=VERTEX_POINT('',#485);
#126=EDGE_CURVE('',#100,#101,#71,.T.);
#127=EDGE_CURVE('',#101,#102,#61,.T.);
#128=EDGE_CURVE('',#102,#102,#72,.T.);
#129=EDGE_CURVE('',#101,#100,#73,.T.);
#130=EDGE_CURVE('',#100,#103,#62,.T.);
#131=EDGE_CURVE('',#103,#104,#74,.T.);
#132=EDGE_CURVE('',#104,#103,#75,.T.);
#133=EDGE_CURVE('',#105,#106,#76,.T.);
#134=EDGE_CURVE('',#106,#105,#77,.T.);
#135=EDGE_CURVE('',#107,#108,#78,.T.);
#136=EDGE_CURVE('',#108,#107,#79,.T.);
#137=EDGE_CURVE('',#108,#106,#63,.T.);
#138=EDGE_CURVE('',#109,#110,#80,.T.);
#139=EDGE_CURVE('',#110,#109,#81,.T.);
#140=EDGE_CURVE('',#110,#108,#64,.T.);
#141=EDGE_CURVE('',#111,#112,#82,.T.);
#142=EDGE_CURVE('',#112,#111,#83,.T.);
#143=EDGE_CURVE('',#113,#114,#84,.T.);
#144=EDGE_CURVE('',#114,#113,#85,.T.);
#145=EDGE_CURVE('',#114,#112,#86,.T.);
#146=EDGE_CURVE('',#115,#116,#87,.T.);
#147=EDGE_CURVE('',#116,#115,#88,.T.);
#148=EDGE_CURVE('',#117,#118,#89,.T.);
#149=EDGE_CURVE('',#119,#117,#90,.T.);
#150=EDGE_CURVE('',#118,#119,#91,.T.);
#151=EDGE_CURVE('',#118,#116,#65,.T.);
#152=EDGE_CURVE('',#120,#121,#92,.T.);
#153=EDGE_CURVE('',#121,#120,#93,.T.);
#154=EDGE_CURVE('',#121,#119,#94,.T.);
#155=EDGE_CURVE('',#122,#123,#95,.T.);
#156=EDGE_CURVE('',#123,#122,#96,.T.);
#157=EDGE_CURVE('',#124,#125,#97,.T.);
#158=EDGE_CURVE('',#125,#124,#98,.T.);
#159=EDGE_CURVE('',#125,#123,#99,.T.);
#160=ORIENTED_EDGE('',*,*,#126,.T.);
#161=ORIENTED_EDGE('',*,*,#127,.T.);
#162=ORIENTED_EDGE('',*,*,#128,.T.);
#163=ORIENTED_EDGE('',*,*,#127,.F.);
#164=ORIENTED_EDGE('',*,*,#129,.T.);
#165=ORIENTED_EDGE('',*,*,#126,.F.);
#166=ORIENTED_EDGE('',*,*,#130,.T.);
#167=ORIENTED_EDGE('',*,*,#131,.T.);
#168=ORIENTED_EDGE('',*,*,#132,.T.);
#169=ORIENTED_EDGE('',*,*,#130,.F.);
#170=ORIENTED_EDGE('',*,*,#129,.F.);
#171=ORIENTED_EDGE('',*,*,#133,.F.);
#172=ORIENTED_EDGE('',*,*,#134,.F.);
#173=ORIENTED_EDGE('',*,*,#128,.F.);
#174=ORIENTED_EDGE('',*,*,#135,.F.);
#175=ORIENTED_EDGE('',*,*,#136,.F.);
#176=ORIENTED_EDGE('',*,*,#137,.T.);
#177=ORIENTED_EDGE('',*,*,#134,.T.);
#178=ORIENTED_EDGE('',*,*,#133,.T.);
#179=ORIENTED_EDGE('',*,*,#137,.F.);
#180=ORIENTED_EDGE('',*,*,#138,.F.);
#181=ORIENTED_EDGE('',*,*,#139,.F.);
#182=ORIENTED_EDGE('',*,*,#140,.T.);
#183=ORIENTED_EDGE('',*,*,#136,.T.);
#184=ORIENTED_EDGE('',*,*,#135,.T.);
#185=ORIENTED_EDGE('',*,*,#140,.F.);
#186=ORIENTED_EDGE('',*,*,#141,.F.);
#187=ORIENTED_EDGE('',*,*,#142,.F.);
#188=ORIENTED_EDGE('',*,*,#138,.T.);
#189=ORIENTED_EDGE('',*,*,#139,.T.);
#190=ORIENTED_EDGE('',*,*,#143,.F.);
#191=ORIENTED_EDGE('',*,*,#144,.F.);
#192=ORIENTED_EDGE('',*,*,#145,.T.);
#193=ORIENTED_EDGE('',*,*,#142,.T.);
#194=ORIENTED_EDGE('',*,*,#141,.T.);
#195=ORIENTED_EDGE('',*,*,#145,.F.);
#196=ORIENTED_EDGE('',*,*,#146,.F.);
#197=ORIENTED_EDGE('',*,*,#147,.F.);
#198=ORIENTED_EDGE('',*,*,#143,.T.);
#199=ORIENTED_EDGE('',*,*,#144,.T.);
#200=ORIENTED_EDGE('',*,*,#148,.F.);
#201=ORIENTED_EDGE('',*,*,#149,.F.);
#202=ORIENTED_EDGE('',*,*,#150,.F.);
#203=ORIENTED_EDGE('',*,*,#151,.T.);
#204=ORIENTED_EDGE('',*,*,#147,.T.);
#205=ORIENTED_EDGE('',*,*,#146,.T.);
#206=ORIENTED_EDGE('',*,*,#151,.F.);
#207=ORIENTED_EDGE('',*,*,#152,.F.);
#208=ORIENTED_EDGE('',*,*,#153,.F.);
#209=ORIENTED_EDGE('',*,*,#154,.T.);
#210=ORIENTED_EDGE('',*,*,#149,.T.);
#211=ORIENTED_EDGE('',*,*,#148,.T.);
#212=ORIENTED_EDGE('',*,*,#150,.T.);
#213=ORIENTED_EDGE('',*,*,#154,.F.);
#214=ORIENTED_EDGE('',*,*,#155,.F.);
#215=ORIENTED_EDGE('',*,*,#156,.F.);
#216=ORIENTED_EDGE('',*,*,#152,.T.);
#217=ORIENTED_EDGE('',*,*,#153,.T.);
#218=ORIENTED_EDGE('',*,*,#157,.F.);
#219=ORIENTED_EDGE('',*,*,#158,.F.);
#220=ORIENTED_EDGE('',*,*,#159,.T.);
#221=ORIENTED_EDGE('',*,*,#156,.T.);
#222=ORIENTED_EDGE('',*,*,#155,.T.);
#223=ORIENTED_EDGE('',*,*,#159,.F.);
#224=ORIENTED_EDGE('',*,*,#157,.T.);
#225=ORIENTED_EDGE('',*,*,#158,.T.);
#226=ORIENTED_EDGE('',*,*,#132,.F.);
#227=ORIENTED_EDGE('',*,*,#131,.F.);
#228=CONICAL_SURFACE('',#280,1.6,0.785398163397482);
#229=CONICAL_SURFACE('',#290,4.5,0.785398163397449);
#230=CONICAL_SURFACE('',#306,21.7866952631469,0.629995338266795);
#231=STYLED_ITEM('',(#512),#246);
#232=STYLED_ITEM('',(#512),#247);
#233=STYLED_ITEM('',(#512),#248);
#234=STYLED_ITEM('',(#512),#249);
#235=STYLED_ITEM('',(#512),#250);
#236=STYLED_ITEM('',(#510),#251);
#237=STYLED_ITEM('',(#510),#252);
#238=STYLED_ITEM('',(#510),#253);
#239=STYLED_ITEM('',(#510),#254);
#240=STYLED_ITEM('',(#510),#255);
#241=STYLED_ITEM('',(#510),#256);
#242=STYLED_ITEM('',(#510),#257);
#243=STYLED_ITEM('',(#510),#258);
#244=STYLED_ITEM('',(#510),#259);
#245=STYLED_ITEM('',(#511),#13);
#246=ADVANCED_FACE('',(#29),#228,.F.);
#247=ADVANCED_FACE('',(#30),#27,.F.);
#248=ADVANCED_FACE('',(#31,#17),#21,.T.);
#249=ADVANCED_FACE('',(#32),#229,.T.);
#250=ADVANCED_FACE('',(#33),#28,.T.);
#251=ADVANCED_FACE('',(#34,#18),#22,.T.);
#252=ADVANCED_FACE('',(#35),#14,.T.);
#253=ADVANCED_FACE('',(#36,#19),#23,.T.);
#254=ADVANCED_FACE('',(#37),#230,.T.);
#255=ADVANCED_FACE('',(#38),#15,.F.);
#256=ADVANCED_FACE('',(#39,#20),#24,.T.);
#257=ADVANCED_FACE('',(#40),#16,.T.);
#258=ADVANCED_FACE('',(#41),#25,.T.);
#259=ADVANCED_FACE('',(#42),#26,.T.);
#260=CLOSED_SHELL('',(#246,#247,#248,#249,#250,#251,#252,#253,#254,#255,
#256,#257,#258,#259));
#261=DERIVED_UNIT_ELEMENT(#263,1.);
#262=DERIVED_UNIT_ELEMENT(#496,3.);
#263=(
MASS_UNIT()
NAMED_UNIT(*)
SI_UNIT($,.GRAM.)
);
#264=DERIVED_UNIT((#261,#262));
#265=MEASURE_REPRESENTATION_ITEM('density measure',
POSITIVE_RATIO_MEASURE(1.),#264);
#266=PROPERTY_DEFINITION_REPRESENTATION(#271,#268);
#267=PROPERTY_DEFINITION_REPRESENTATION(#272,#269);
#268=REPRESENTATION('material name',(#270),#493);
#269=REPRESENTATION('density',(#265),#493);
#270=DESCRIPTIVE_REPRESENTATION_ITEM('Gen\X\E9rico','Gen\X\E9rico');
#271=PROPERTY_DEFINITION('material property','material name',#503);
#272=PROPERTY_DEFINITION('material property','density of part',#503);
#273=DATE_TIME_ROLE('creation_date');
#274=CC_DESIGN_DATE_AND_TIME_ASSIGNMENT(#275,#273,(#503));
#275=DATE_AND_TIME(#276,#277);
#276=CALENDAR_DATE(2020,6,10);
#277=LOCAL_TIME(16,4,45.,#278);
#278=COORDINATED_UNIVERSAL_TIME_OFFSET(0,0,.BEHIND.);
#279=AXIS2_PLACEMENT_3D('placement',#416,#323,#324);
#280=AXIS2_PLACEMENT_3D('',#417,#325,#326);
#281=AXIS2_PLACEMENT_3D('',#420,#327,#328);
#282=AXIS2_PLACEMENT_3D('',#423,#330,#331);
#283=AXIS2_PLACEMENT_3D('',#424,#332,#333);
#284=AXIS2_PLACEMENT_3D('',#425,#334,#335);
#285=AXIS2_PLACEMENT_3D('',#429,#337,#338);
#286=AXIS2_PLACEMENT_3D('',#430,#339,#340);
#287=AXIS2_PLACEMENT_3D('',#431,#341,#342);
#288=AXIS2_PLACEMENT_3D('',#434,#343,#344);
#289=AXIS2_PLACEMENT_3D('',#435,#345,#346);
#290=AXIS2_PLACEMENT_3D('',#436,#347,#348);
#291=AXIS2_PLACEMENT_3D('',#439,#349,#350);
#292=AXIS2_PLACEMENT_3D('',#440,#351,#352);
#293=AXIS2_PLACEMENT_3D('',#442,#354,#355);
#294=AXIS2_PLACEMENT_3D('',#445,#356,#357);
#295=AXIS2_PLACEMENT_3D('',#446,#358,#359);
#296=AXIS2_PLACEMENT_3D('',#448,#361,#362);
#297=AXIS2_PLACEMENT_3D('',#451,#363,#364);
#298=AXIS2_PLACEMENT_3D('',#452,#365,#366);
#299=AXIS2_PLACEMENT_3D('',#453,#367,#368);
#300=AXIS2_PLACEMENT_3D('',#456,#369,#370);
#301=AXIS2_PLACEMENT_3D('',#457,#371,#372);
#302=AXIS2_PLACEMENT_3D('',#458,#373,#374);
#303=AXIS2_PLACEMENT_3D('',#459,#375,#376);
#304=AXIS2_PLACEMENT_3D('',#462,#377,#378);
#305=AXIS2_PLACEMENT_3D('',#463,#379,#380);
#306=AXIS2_PLACEMENT_3D('',#464,#381,#382);
#307=AXIS2_PLACEMENT_3D('',#467,#383,#384);
#308=AXIS2_PLACEMENT_3D('',#469,#385,#386);
#309=AXIS2_PLACEMENT_3D('',#470,#387,#388);
#310=AXIS2_PLACEMENT_3D('',#472,#390,#391);
#311=AXIS2_PLACEMENT_3D('',#475,#392,#393);
#312=AXIS2_PLACEMENT_3D('',#476,#394,#395);
#313=AXIS2_PLACEMENT_3D('',#477,#396,#397);
#314=AXIS2_PLACEMENT_3D('',#478,#398,#399);
#315=AXIS2_PLACEMENT_3D('',#481,#400,#401);
#316=AXIS2_PLACEMENT_3D('',#482,#402,#403);
#317=AXIS2_PLACEMENT_3D('',#483,#404,#405);
#318=AXIS2_PLACEMENT_3D('',#486,#406,#407);
#319=AXIS2_PLACEMENT_3D('',#487,#408,#409);
#320=AXIS2_PLACEMENT_3D('',#488,#410,#411);
#321=AXIS2_PLACEMENT_3D('',#489,#412,#413);
#322=AXIS2_PLACEMENT_3D('',#490,#414,#415);
#323=DIRECTION('axis',(0.,0.,1.));
#324=DIRECTION('refdir',(1.,0.,0.));
#325=DIRECTION('center_axis',(0.,1.,0.));
#326=DIRECTION('ref_axis',(1.,0.,0.));
#327=DIRECTION('center_axis',(0.,-1.,0.));
#328=DIRECTION('ref_axis',(1.,0.,0.));
#329=DIRECTION('',(-0.707106781186571,0.707106781186524,8.65956056235522E-17));
#330=DIRECTION('center_axis',(0.,1.,0.));
#331=DIRECTION('ref_axis',(1.,0.,0.));
#332=DIRECTION('center_axis',(0.,-1.,0.));
#333=DIRECTION('ref_axis',(1.,0.,0.));
#334=DIRECTION('center_axis',(0.,-1.,0.));
#335=DIRECTION('ref_axis',(-1.,0.,0.));
#336=DIRECTION('',(0.,-1.,0.));
#337=DIRECTION('center_axis',(0.,-1.,0.));
#338=DIRECTION('ref_axis',(-1.,0.,0.));
#339=DIRECTION('center_axis',(0.,-1.,0.));
#340=DIRECTION('ref_axis',(-1.,0.,0.));
#341=DIRECTION('center_axis',(0.,1.,0.));
#342=DIRECTION('ref_axis',(0.,0.,1.));
#343=DIRECTION('center_axis',(0.,-1.,0.));
#344=DIRECTION('ref_axis',(-1.,0.,0.));
#345=DIRECTION('center_axis',(0.,-1.,0.));
#346=DIRECTION('ref_axis',(-1.,0.,0.));
#347=DIRECTION('center_axis',(0.,-1.,0.));
#348=DIRECTION('ref_axis',(-1.,0.,0.));
#349=DIRECTION('center_axis',(0.,-1.,0.));
#350=DIRECTION('ref_axis',(-1.,0.,0.));
#351=DIRECTION('center_axis',(0.,-1.,0.));
#352=DIRECTION('ref_axis',(-1.,0.,0.));
#353=DIRECTION('',(-0.707106781186548,0.707106781186547,-8.65956056235494E-17));
#354=DIRECTION('center_axis',(0.,-1.,0.));
#355=DIRECTION('ref_axis',(-1.,0.,0.));
#356=DIRECTION('center_axis',(0.,-1.,0.));
#357=DIRECTION('ref_axis',(-1.,0.,0.));
#358=DIRECTION('center_axis',(0.,-1.,0.));
#359=DIRECTION('ref_axis',(-1.,0.,0.));
#360=DIRECTION('',(0.,1.,0.));
#361=DIRECTION('center_axis',(0.,1.,0.));
#362=DIRECTION('ref_axis',(0.,0.,1.));
#363=DIRECTION('center_axis',(0.,-1.,0.));
#364=DIRECTION('ref_axis',(-1.,0.,0.));
#365=DIRECTION('center_axis',(0.,-1.,0.));
#366=DIRECTION('ref_axis',(-1.,0.,0.));
#367=DIRECTION('center_axis',(0.,-1.,0.));
#368=DIRECTION('ref_axis',(0.,0.,-1.));
#369=DIRECTION('center_axis',(0.,-1.,0.));
#370=DIRECTION('ref_axis',(-1.,0.,0.));
#371=DIRECTION('center_axis',(0.,-1.,0.));
#372=DIRECTION('ref_axis',(-1.,0.,0.));
#373=DIRECTION('center_axis',(-1.,0.,-1.22464679914735E-16));
#374=DIRECTION('ref_axis',(-1.22464679914735E-16,0.,1.));
#375=DIRECTION('center_axis',(0.,1.,0.));
#376=DIRECTION('ref_axis',(0.,0.,1.));
#377=DIRECTION('center_axis',(0.,-1.,0.));
#378=DIRECTION('ref_axis',(-1.,0.,0.));
#379=DIRECTION('center_axis',(0.,-1.,0.));
#380=DIRECTION('ref_axis',(-1.,0.,0.));
#381=DIRECTION('center_axis',(0.,-1.,0.));
#382=DIRECTION('ref_axis',(-1.,0.,0.));
#383=DIRECTION('center_axis',(0.,-1.,0.));
#384=DIRECTION('ref_axis',(-1.,0.,0.));
#385=DIRECTION('center_axis',(0.,-1.,0.));
#386=DIRECTION('ref_axis',(-1.,0.,0.));
#387=DIRECTION('center_axis',(0.,-1.,0.));
#388=DIRECTION('ref_axis',(-1.,0.,0.));
#389=DIRECTION('',(-0.589140991127202,0.808030254739053,-7.21489629030427E-17));
#390=DIRECTION('center_axis',(-1.82057260722774E-17,-1.,-5.99375847500414E-16));
#391=DIRECTION('ref_axis',(0.,6.03616339760525E-16,-1.));
#392=DIRECTION('center_axis',(0.,-1.,0.));
#393=DIRECTION('ref_axis',(-1.,0.,0.));
#394=DIRECTION('center_axis',(0.,-1.,0.));
#395=DIRECTION('ref_axis',(-1.,0.,0.));
#396=DIRECTION('center_axis',(1.,-1.82057260722775E-17,1.22464679914735E-16));
#397=DIRECTION('ref_axis',(-1.22464679914735E-16,-6.00186701466432E-16,
1.));
#398=DIRECTION('center_axis',(0.,1.,0.));
#399=DIRECTION('ref_axis',(0.,0.,1.));
#400=DIRECTION('center_axis',(0.,-1.,0.));
#401=DIRECTION('ref_axis',(-1.,0.,0.));
#402=DIRECTION('center_axis',(0.,-1.,0.));
#403=DIRECTION('ref_axis',(-1.,0.,0.));
#404=DIRECTION('center_axis',(0.,-1.,0.));
#405=DIRECTION('ref_axis',(0.,0.,-1.));
#406=DIRECTION('center_axis',(0.,-1.,0.));
#407=DIRECTION('ref_axis',(-1.,0.,0.));
#408=DIRECTION('center_axis',(0.,-1.,0.));
#409=DIRECTION('ref_axis',(-1.,0.,0.));
#410=DIRECTION('center_axis',(-1.,0.,-1.22464679914735E-16));
#411=DIRECTION('ref_axis',(-1.22464679914735E-16,0.,1.));
#412=DIRECTION('center_axis',(0.,-1.,0.));
#413=DIRECTION('ref_axis',(0.,0.,-1.));
#414=DIRECTION('center_axis',(0.,1.,0.));
#415=DIRECTION('ref_axis',(0.,0.,1.));
#416=CARTESIAN_POINT('',(0.,0.,0.));
#417=CARTESIAN_POINT('Origin',(0.,43.9000000000001,0.));
#418=CARTESIAN_POINT('',(1.5,43.8000000000001,1.83697019872103E-16));
#419=CARTESIAN_POINT('',(-1.49999999999999,43.8000000000001,1.83697019872102E-16));
#420=CARTESIAN_POINT('Origin',(0.,43.8000000000001,0.));
#421=CARTESIAN_POINT('',(-1.7,44.0000000000001,2.0819E-16));
#422=CARTESIAN_POINT('',(-1.6,43.9000000000001,1.95943487863577E-16));
#423=CARTESIAN_POINT('Origin',(0.,44.0000000000001,0.));
#424=CARTESIAN_POINT('Origin',(0.,43.8000000000001,0.));
#425=CARTESIAN_POINT('Origin',(0.,34.5000000000001,0.));
#426=CARTESIAN_POINT('',(1.5,25.,1.83697019872103E-16));
#427=CARTESIAN_POINT('',(1.5,34.5000000000001,1.83697019872103E-16));
#428=CARTESIAN_POINT('',(-1.5,25.,0.));
#429=CARTESIAN_POINT('Origin',(0.,25.,0.));
#430=CARTESIAN_POINT('Origin',(0.,25.,0.));
#431=CARTESIAN_POINT('Origin',(-2.75,44.0000000000001,0.));
#432=CARTESIAN_POINT('',(-4.,44.0000000000001,0.));
#433=CARTESIAN_POINT('',(4.,44.0000000000001,4.89858719658941E-16));
#434=CARTESIAN_POINT('Origin',(0.,44.0000000000001,0.));
#435=CARTESIAN_POINT('Origin',(0.,44.0000000000001,0.));
#436=CARTESIAN_POINT('Origin',(0.,43.5000000000001,0.));
#437=CARTESIAN_POINT('',(-5.,43.0000000000001,0.));
#438=CARTESIAN_POINT('',(5.,43.0000000000001,6.12323399573677E-16));
#439=CARTESIAN_POINT('Origin',(0.,43.0000000000001,0.));
#440=CARTESIAN_POINT('Origin',(0.,43.0000000000001,0.));
#441=CARTESIAN_POINT('',(4.5,43.5000000000001,5.51091059616309E-16));
#442=CARTESIAN_POINT('Origin',(0.,34.0000000000001,0.));
#443=CARTESIAN_POINT('',(-5.,25.,0.));
#444=CARTESIAN_POINT('',(5.,25.,6.12323399573677E-16));
#445=CARTESIAN_POINT('Origin',(0.,25.,0.));
#446=CARTESIAN_POINT('Origin',(0.,25.,0.));
#447=CARTESIAN_POINT('',(5.,34.0000000000001,6.12323399573677E-16));
#448=CARTESIAN_POINT('Origin',(-7.00000000000002,25.,0.));
#449=CARTESIAN_POINT('',(-9.00000000000003,25.0000000000001,0.));
#450=CARTESIAN_POINT('',(-1.10218211923262E-15,25.0000000000001,9.00000000000003));
#451=CARTESIAN_POINT('Origin',(0.,25.0000000000001,0.));
#452=CARTESIAN_POINT('Origin',(0.,25.0000000000001,0.));
#453=CARTESIAN_POINT('Origin',(0.,25.0000000000001,0.));
#454=CARTESIAN_POINT('',(-11.,25.0000000000001,0.));
#455=CARTESIAN_POINT('',(-1.34711147906209E-15,25.0000000000001,11.));
#456=CARTESIAN_POINT('Origin',(0.,25.0000000000001,0.));
#457=CARTESIAN_POINT('Origin',(0.,25.0000000000001,0.));
#458=CARTESIAN_POINT('Origin',(-1.22464679914735E-15,25.0000000000001,10.));
#459=CARTESIAN_POINT('Origin',(-12.,25.,0.));
#460=CARTESIAN_POINT('',(-13.,25.,0.));
#461=CARTESIAN_POINT('',(13.,25.,1.59204083889156E-15));
#462=CARTESIAN_POINT('Origin',(0.,25.,0.));
#463=CARTESIAN_POINT('Origin',(0.,25.,0.));
#464=CARTESIAN_POINT('Origin',(0.,12.9486986668322,0.));
#465=CARTESIAN_POINT('',(-30.5733905262938,0.897397333664425,0.));
#466=CARTESIAN_POINT('',(30.5733905262938,0.897397333664431,3.74416048471077E-15));
#467=CARTESIAN_POINT('Origin',(0.,0.897397333664425,0.));
#468=CARTESIAN_POINT('',(-2.20738112100996E-14,0.897397333664425,30.5733905262938));
#469=CARTESIAN_POINT('Origin',(0.,0.897397333664425,0.));
#470=CARTESIAN_POINT('Origin',(0.,0.897397333664425,0.));
#471=CARTESIAN_POINT('',(21.7866952631469,12.9486986668322,2.66810066180117E-15));
#472=CARTESIAN_POINT('Origin',(-1.83186799063151E-14,1.50000000000008,-7.43849426498855E-14));
#473=CARTESIAN_POINT('',(-31.3714318952248,0.500000000000029,0.));
#474=CARTESIAN_POINT('',(-2.2178777997903E-14,0.500000000000029,31.3714318952248));
#475=CARTESIAN_POINT('Origin',(0.,0.500000000000029,0.));
#476=CARTESIAN_POINT('Origin',(0.,0.500000000000029,0.));
#477=CARTESIAN_POINT('Origin',(-2.21605722718307E-14,1.50000000000006,31.3714318952247));
#478=CARTESIAN_POINT('Origin',(-31.4357159476124,0.5,0.));
#479=CARTESIAN_POINT('',(-31.5,0.499999999999972,0.));
#480=CARTESIAN_POINT('',(-3.85763741731416E-15,0.499999999999972,31.5));
#481=CARTESIAN_POINT('Origin',(0.,0.499999999999972,0.));
#482=CARTESIAN_POINT('Origin',(0.,0.499999999999972,0.));
#483=CARTESIAN_POINT('Origin',(0.,0.249999999999972,0.));
#484=CARTESIAN_POINT('',(-31.5,2.842171E-14,0.));
#485=CARTESIAN_POINT('',(-3.85763741731416E-15,2.84147705365001E-14,31.5));
#486=CARTESIAN_POINT('Origin',(0.,2.842171E-14,0.));
#487=CARTESIAN_POINT('Origin',(0.,2.842171E-14,0.));
#488=CARTESIAN_POINT('Origin',(-3.85763741731416E-15,0.249999999999972,
31.5));
#489=CARTESIAN_POINT('Origin',(-15.75,1.421085E-14,0.));
#490=CARTESIAN_POINT('Origin',(-0.75,25.,0.));
#491=UNCERTAINTY_MEASURE_WITH_UNIT(LENGTH_MEASURE(0.01),#495,
'DISTANCE_ACCURACY_VALUE',
'Maximum model space distance between geometric entities at asserted c
onnectivities');
#492=UNCERTAINTY_MEASURE_WITH_UNIT(LENGTH_MEASURE(0.01),#495,
'DISTANCE_ACCURACY_VALUE',
'Maximum model space distance between geometric entities at asserted c
onnectivities');
#493=(
GEOMETRIC_REPRESENTATION_CONTEXT(3)
GLOBAL_UNCERTAINTY_ASSIGNED_CONTEXT((#491))
GLOBAL_UNIT_ASSIGNED_CONTEXT((#495,#497,#498))
REPRESENTATION_CONTEXT('','3D')
);
#494=(
GEOMETRIC_REPRESENTATION_CONTEXT(3)
GLOBAL_UNCERTAINTY_ASSIGNED_CONTEXT((#492))
GLOBAL_UNIT_ASSIGNED_CONTEXT((#495,#497,#498))
REPRESENTATION_CONTEXT('','3D')
);
#495=(
LENGTH_UNIT()
NAMED_UNIT(*)
SI_UNIT(.MILLI.,.METRE.)
);
#496=(
LENGTH_UNIT()
NAMED_UNIT(*)
SI_UNIT(.CENTI.,.METRE.)
);
#497=(
NAMED_UNIT(*)
PLANE_ANGLE_UNIT()
SI_UNIT($,.RADIAN.)
);
#498=(
NAMED_UNIT(*)
SI_UNIT($,.STERADIAN.)
SOLID_ANGLE_UNIT()
);
#499=SHAPE_DEFINITION_REPRESENTATION(#500,#501);
#500=PRODUCT_DEFINITION_SHAPE('',$,#503);
#501=SHAPE_REPRESENTATION('',(#279),#493);
#502=DESIGN_CONTEXT('part definition',#507,'design');
#503=PRODUCT_DEFINITION('vsa63m10','vsa63m10',#504,#502);
#504=PRODUCT_DEFINITION_FORMATION('',$,#509);
#505=PRODUCT_RELATED_PRODUCT_CATEGORY('vsa63m10','vsa63m10',(#509));
#506=APPLICATION_PROTOCOL_DEFINITION('international standard',
'ap203_configuration_controlled_3d_design_of_mechanical_parts_and_asse
mblies_mim_lf',2004,#507);
#507=APPLICATION_CONTEXT(
'Configuration Controlled 3D Design of Mechanical Parts and Assemblies');
#508=MECHANICAL_CONTEXT('part definition',#507,'mechanical');
#509=PRODUCT('vsa63m10','vsa63m10',$,(#508));
#510=PRESENTATION_STYLE_ASSIGNMENT((#513));
#511=PRESENTATION_STYLE_ASSIGNMENT((#514));
#512=PRESENTATION_STYLE_ASSIGNMENT((#515));
#513=SURFACE_STYLE_USAGE(.BOTH.,#522);
#514=SURFACE_STYLE_USAGE(.BOTH.,#523);
#515=SURFACE_STYLE_USAGE(.BOTH.,#524);
#516=SURFACE_STYLE_RENDERING_WITH_PROPERTIES($,#534,(#519));
#517=SURFACE_STYLE_RENDERING_WITH_PROPERTIES($,#535,(#520));
#518=SURFACE_STYLE_RENDERING_WITH_PROPERTIES($,#536,(#521));
#519=SURFACE_STYLE_TRANSPARENT(0.);
#520=SURFACE_STYLE_TRANSPARENT(0.);
#521=SURFACE_STYLE_TRANSPARENT(0.);
#522=SURFACE_SIDE_STYLE('',(#525,#516));
#523=SURFACE_SIDE_STYLE('',(#526,#517));
#524=SURFACE_SIDE_STYLE('',(#527,#518));
#525=SURFACE_STYLE_FILL_AREA(#528);
#526=SURFACE_STYLE_FILL_AREA(#529);
#527=SURFACE_STYLE_FILL_AREA(#530);
#528=FILL_AREA_STYLE('',(#531));
#529=FILL_AREA_STYLE('',(#532));
#530=FILL_AREA_STYLE('',(#533));
#531=FILL_AREA_STYLE_COLOUR('',#534);
#532=FILL_AREA_STYLE_COLOUR('',#535);
#533=FILL_AREA_STYLE_COLOUR('',#536);
#534=COLOUR_RGB('',0.32156862745098,0.32156862745098,0.32156862745098);
#535=COLOUR_RGB('',0.749019607843137,0.749019607843137,0.749019607843137);
#536=COLOUR_RGB('',0.745098039215686,0.737254901960784,0.729411764705882);
ENDSEC;
END-ISO-10303-21;
