ISO-10303-21;
HEADER;
/* Generated by software containing ST-Developer
 * from STEP Tools, Inc. (www.steptools.com) 
 */

FILE_DESCRIPTION(
/* description */ (''),
/* implementation_level */ '2;1');

FILE_NAME(
/* name */ 'H:\\CAD\\neutral\\3d\\74098\\vsti_15-16_unf_es.stp',
/* time_stamp */ '2017-01-19T08:26:38+01:00',
/* author */ ('leitheu\X\DFer'),
/* organization */ (''),
/* preprocessor_version */ 'ST-DEVELOPER v15.6',
/* originating_system */ 'Autodesk Inventor LT ',
/* authorisation */ '');

FILE_SCHEMA (('AUTOMOTIVE_DESIGN { 1 0 10303 214 3 1 1 }'));
ENDSEC;

DATA;
#10=MECHANICAL_DESIGN_GEOMETRIC_PRESENTATION_REPRESENTATION('',(#13),#517);
#11=SHAPE_REPRESENTATION_RELATIONSHIP('SRR','None',#526,#12);
#12=ADVANCED_BREP_SHAPE_REPRESENTATION($,(#14),#516);
#13=STYLED_ITEM('',(#535),#14);
#14=MANIFOLD_SOLID_BREP('1',#297);
#15=LINE('',#488,#27);
#16=LINE('',#489,#28);
#17=LINE('',#490,#29);
#18=LINE('',#493,#30);
#19=LINE('',#494,#31);
#20=LINE('',#497,#32);
#21=LINE('',#498,#33);
#22=LINE('',#501,#34);
#23=LINE('',#502,#35);
#24=LINE('',#505,#36);
#25=LINE('',#506,#37);
#26=LINE('',#508,#38);
#27=VECTOR('',#389,9.23760430703402);
#28=VECTOR('',#390,9.46397582986983);
#29=VECTOR('',#391,9.46397582986982);
#30=VECTOR('',#394,9.237604307034);
#31=VECTOR('',#395,9.46397582986983);
#32=VECTOR('',#398,9.23760430703402);
#33=VECTOR('',#399,9.46397582986982);
#34=VECTOR('',#402,9.23760430703401);
#35=VECTOR('',#403,9.46397582986983);
#36=VECTOR('',#406,9.23760430703401);
#37=VECTOR('',#407,9.46397582986982);
#38=VECTOR('',#410,9.23760430703402);
#39=PLANE('',#324);
#40=PLANE('',#325);
#41=PLANE('',#326);
#42=PLANE('',#327);
#43=PLANE('',#328);
#44=PLANE('',#329);
#45=PLANE('',#330);
#46=PLANE('',#331);
#47=PLANE('',#332);
#48=PLANE('',#333);
#49=PLANE('',#334);
#50=(
BOUNDED_CURVE()
B_SPLINE_CURVE(2,(#463,#464,#465),.UNSPECIFIED.,.F.,.F.)
B_SPLINE_CURVE_WITH_KNOTS((3,3),(-1.30288264275768,-0.256227219374745),
 .UNSPECIFIED.)
CURVE()
GEOMETRIC_REPRESENTATION_ITEM()
RATIONAL_B_SPLINE_CURVE((1.10410068989306,1.27490566105105,1.10410068989707))
REPRESENTATION_ITEM('')
);
#51=(
BOUNDED_CURVE()
B_SPLINE_CURVE(2,(#467,#468,#469),.UNSPECIFIED.,.F.,.F.)
B_SPLINE_CURVE_WITH_KNOTS((3,3),(-1.30288264275768,-0.256227219374745),
 .UNSPECIFIED.)
CURVE()
GEOMETRIC_REPRESENTATION_ITEM()
RATIONAL_B_SPLINE_CURVE((1.10410068989306,1.27490566105105,1.10410068989707))
REPRESENTATION_ITEM('')
);
#52=(
BOUNDED_CURVE()
B_SPLINE_CURVE(2,(#471,#472,#473),.UNSPECIFIED.,.F.,.F.)
B_SPLINE_CURVE_WITH_KNOTS((3,3),(-1.30288264275768,-0.256227219374745),
 .UNSPECIFIED.)
CURVE()
GEOMETRIC_REPRESENTATION_ITEM()
RATIONAL_B_SPLINE_CURVE((1.10410068989306,1.27490566105105,1.10410068989707))
REPRESENTATION_ITEM('')
);
#53=(
BOUNDED_CURVE()
B_SPLINE_CURVE(2,(#475,#476,#477),.UNSPECIFIED.,.F.,.F.)
B_SPLINE_CURVE_WITH_KNOTS((3,3),(0.256227219374745,1.30288264275768),
 .UNSPECIFIED.)
CURVE()
GEOMETRIC_REPRESENTATION_ITEM()
RATIONAL_B_SPLINE_CURVE((1.10410068989706,1.27490566105105,1.10410068989306))
REPRESENTATION_ITEM('')
);
#54=(
BOUNDED_CURVE()
B_SPLINE_CURVE(2,(#479,#480,#481),.UNSPECIFIED.,.F.,.F.)
B_SPLINE_CURVE_WITH_KNOTS((3,3),(0.256227219374745,1.30288264275768),
 .UNSPECIFIED.)
CURVE()
GEOMETRIC_REPRESENTATION_ITEM()
RATIONAL_B_SPLINE_CURVE((1.10410068989707,1.27490566105105,1.10410068989306))
REPRESENTATION_ITEM('')
);
#55=(
BOUNDED_CURVE()
B_SPLINE_CURVE(2,(#482,#483,#484),.UNSPECIFIED.,.F.,.F.)
B_SPLINE_CURVE_WITH_KNOTS((3,3),(0.256227219374746,1.30288264275768),
 .UNSPECIFIED.)
CURVE()
GEOMETRIC_REPRESENTATION_ITEM()
RATIONAL_B_SPLINE_CURVE((1.10410068989707,1.27490566105105,1.10410068989306))
REPRESENTATION_ITEM('')
);
#56=TOROIDAL_SURFACE('',#306,15.6675000000001,0.500000000000118);
#57=TOROIDAL_SURFACE('',#310,15.6675,0.499999999999945);
#58=CYLINDRICAL_SURFACE('',#302,16.575);
#59=CYLINDRICAL_SURFACE('',#308,15.1675);
#60=CYLINDRICAL_SURFACE('',#312,19.);
#61=CYLINDRICAL_SURFACE('',#319,9.45);
#62=FACE_BOUND('',#99,.T.);
#63=FACE_BOUND('',#101,.T.);
#64=FACE_BOUND('',#103,.T.);
#65=FACE_BOUND('',#105,.T.);
#66=FACE_BOUND('',#107,.T.);
#67=FACE_BOUND('',#109,.T.);
#68=FACE_BOUND('',#111,.T.);
#69=FACE_BOUND('',#113,.T.);
#70=FACE_BOUND('',#116,.T.);
#71=FACE_BOUND('',#118,.T.);
#72=FACE_BOUND('',#126,.T.);
#73=FACE_BOUND('',#128,.T.);
#74=FACE_BOUND('',#130,.T.);
#75=FACE_BOUND('',#132,.T.);
#76=FACE_OUTER_BOUND('',#98,.T.);
#77=FACE_OUTER_BOUND('',#100,.T.);
#78=FACE_OUTER_BOUND('',#102,.T.);
#79=FACE_OUTER_BOUND('',#104,.T.);
#80=FACE_OUTER_BOUND('',#106,.T.);
#81=FACE_OUTER_BOUND('',#108,.T.);
#82=FACE_OUTER_BOUND('',#110,.T.);
#83=FACE_OUTER_BOUND('',#112,.T.);
#84=FACE_OUTER_BOUND('',#114,.T.);
#85=FACE_OUTER_BOUND('',#115,.T.);
#86=FACE_OUTER_BOUND('',#117,.T.);
#87=FACE_OUTER_BOUND('',#119,.T.);
#88=FACE_OUTER_BOUND('',#120,.T.);
#89=FACE_OUTER_BOUND('',#121,.T.);
#90=FACE_OUTER_BOUND('',#122,.T.);
#91=FACE_OUTER_BOUND('',#123,.T.);
#92=FACE_OUTER_BOUND('',#124,.T.);
#93=FACE_OUTER_BOUND('',#125,.T.);
#94=FACE_OUTER_BOUND('',#127,.T.);
#95=FACE_OUTER_BOUND('',#129,.T.);
#96=FACE_OUTER_BOUND('',#131,.T.);
#97=FACE_OUTER_BOUND('',#133,.T.);
#98=EDGE_LOOP('',(#206));
#99=EDGE_LOOP('',(#207));
#100=EDGE_LOOP('',(#208));
#101=EDGE_LOOP('',(#209));
#102=EDGE_LOOP('',(#210));
#103=EDGE_LOOP('',(#211));
#104=EDGE_LOOP('',(#212));
#105=EDGE_LOOP('',(#213));
#106=EDGE_LOOP('',(#214));
#107=EDGE_LOOP('',(#215));
#108=EDGE_LOOP('',(#216));
#109=EDGE_LOOP('',(#217));
#110=EDGE_LOOP('',(#218));
#111=EDGE_LOOP('',(#219));
#112=EDGE_LOOP('',(#220));
#113=EDGE_LOOP('',(#221));
#114=EDGE_LOOP('',(#222));
#115=EDGE_LOOP('',(#223));
#116=EDGE_LOOP('',(#224));
#117=EDGE_LOOP('',(#225));
#118=EDGE_LOOP('',(#226,#227,#228,#229,#230,#231));
#119=EDGE_LOOP('',(#232,#233,#234,#235));
#120=EDGE_LOOP('',(#236,#237,#238,#239));
#121=EDGE_LOOP('',(#240,#241,#242,#243));
#122=EDGE_LOOP('',(#244,#245,#246,#247));
#123=EDGE_LOOP('',(#248,#249,#250,#251));
#124=EDGE_LOOP('',(#252,#253,#254,#255));
#125=EDGE_LOOP('',(#256));
#126=EDGE_LOOP('',(#257,#258,#259,#260,#261,#262));
#127=EDGE_LOOP('',(#263));
#128=EDGE_LOOP('',(#264));
#129=EDGE_LOOP('',(#265));
#130=EDGE_LOOP('',(#266));
#131=EDGE_LOOP('',(#267));
#132=EDGE_LOOP('',(#268));
#133=EDGE_LOOP('',(#269));
#134=CIRCLE('',#300,15.15);
#135=CIRCLE('',#301,16.575);
#136=CIRCLE('',#303,16.575);
#137=CIRCLE('',#305,15.4175);
#138=CIRCLE('',#307,15.1675);
#139=CIRCLE('',#309,15.1675);
#140=CIRCLE('',#311,15.6675);
#141=CIRCLE('',#313,19.);
#142=CIRCLE('',#314,19.);
#143=CIRCLE('',#316,18.7);
#144=CIRCLE('',#318,8.);
#145=CIRCLE('',#320,9.45);
#146=CIRCLE('',#321,9.45);
#147=CIRCLE('',#323,9.30000000000001);
#148=VERTEX_POINT('',#423);
#149=VERTEX_POINT('',#425);
#150=VERTEX_POINT('',#428);
#151=VERTEX_POINT('',#431);
#152=VERTEX_POINT('',#434);
#153=VERTEX_POINT('',#437);
#154=VERTEX_POINT('',#440);
#155=VERTEX_POINT('',#443);
#156=VERTEX_POINT('',#445);
#157=VERTEX_POINT('',#448);
#158=VERTEX_POINT('',#451);
#159=VERTEX_POINT('',#454);
#160=VERTEX_POINT('',#456);
#161=VERTEX_POINT('',#459);
#162=VERTEX_POINT('',#461);
#163=VERTEX_POINT('',#462);
#164=VERTEX_POINT('',#466);
#165=VERTEX_POINT('',#470);
#166=VERTEX_POINT('',#474);
#167=VERTEX_POINT('',#478);
#168=VERTEX_POINT('',#486);
#169=VERTEX_POINT('',#487);
#170=VERTEX_POINT('',#492);
#171=VERTEX_POINT('',#496);
#172=VERTEX_POINT('',#500);
#173=VERTEX_POINT('',#504);
#174=EDGE_CURVE('',#148,#148,#134,.T.);
#175=EDGE_CURVE('',#149,#149,#135,.T.);
#176=EDGE_CURVE('',#150,#150,#136,.T.);
#177=EDGE_CURVE('',#151,#151,#137,.T.);
#178=EDGE_CURVE('',#152,#152,#138,.T.);
#179=EDGE_CURVE('',#153,#153,#139,.T.);
#180=EDGE_CURVE('',#154,#154,#140,.T.);
#181=EDGE_CURVE('',#155,#155,#141,.T.);
#182=EDGE_CURVE('',#156,#156,#142,.T.);
#183=EDGE_CURVE('',#157,#157,#143,.T.);
#184=EDGE_CURVE('',#158,#158,#144,.T.);
#185=EDGE_CURVE('',#159,#159,#145,.T.);
#186=EDGE_CURVE('',#160,#160,#146,.T.);
#187=EDGE_CURVE('',#161,#161,#147,.T.);
#188=EDGE_CURVE('',#162,#163,#50,.F.);
#189=EDGE_CURVE('',#164,#162,#51,.F.);
#190=EDGE_CURVE('',#165,#164,#52,.F.);
#191=EDGE_CURVE('',#166,#165,#53,.F.);
#192=EDGE_CURVE('',#167,#166,#54,.F.);
#193=EDGE_CURVE('',#163,#167,#55,.F.);
#194=EDGE_CURVE('',#168,#169,#15,.T.);
#195=EDGE_CURVE('',#166,#169,#16,.T.);
#196=EDGE_CURVE('',#165,#168,#17,.T.);
#197=EDGE_CURVE('',#170,#168,#18,.T.);
#198=EDGE_CURVE('',#164,#170,#19,.T.);
#199=EDGE_CURVE('',#171,#170,#20,.T.);
#200=EDGE_CURVE('',#162,#171,#21,.T.);
#201=EDGE_CURVE('',#172,#171,#22,.T.);
#202=EDGE_CURVE('',#163,#172,#23,.T.);
#203=EDGE_CURVE('',#173,#172,#24,.T.);
#204=EDGE_CURVE('',#167,#173,#25,.T.);
#205=EDGE_CURVE('',#169,#173,#26,.T.);
#206=ORIENTED_EDGE('',*,*,#174,.F.);
#207=ORIENTED_EDGE('',*,*,#175,.T.);
#208=ORIENTED_EDGE('',*,*,#175,.F.);
#209=ORIENTED_EDGE('',*,*,#176,.T.);
#210=ORIENTED_EDGE('',*,*,#176,.F.);
#211=ORIENTED_EDGE('',*,*,#177,.T.);
#212=ORIENTED_EDGE('',*,*,#177,.F.);
#213=ORIENTED_EDGE('',*,*,#178,.T.);
#214=ORIENTED_EDGE('',*,*,#178,.F.);
#215=ORIENTED_EDGE('',*,*,#179,.T.);
#216=ORIENTED_EDGE('',*,*,#179,.F.);
#217=ORIENTED_EDGE('',*,*,#180,.T.);
#218=ORIENTED_EDGE('',*,*,#181,.F.);
#219=ORIENTED_EDGE('',*,*,#182,.T.);
#220=ORIENTED_EDGE('',*,*,#181,.T.);
#221=ORIENTED_EDGE('',*,*,#183,.T.);
#222=ORIENTED_EDGE('',*,*,#184,.F.);
#223=ORIENTED_EDGE('',*,*,#185,.F.);
#224=ORIENTED_EDGE('',*,*,#186,.T.);
#225=ORIENTED_EDGE('',*,*,#187,.F.);
#226=ORIENTED_EDGE('',*,*,#188,.F.);
#227=ORIENTED_EDGE('',*,*,#189,.F.);
#228=ORIENTED_EDGE('',*,*,#190,.F.);
#229=ORIENTED_EDGE('',*,*,#191,.F.);
#230=ORIENTED_EDGE('',*,*,#192,.F.);
#231=ORIENTED_EDGE('',*,*,#193,.F.);
#232=ORIENTED_EDGE('',*,*,#194,.T.);
#233=ORIENTED_EDGE('',*,*,#195,.F.);
#234=ORIENTED_EDGE('',*,*,#191,.T.);
#235=ORIENTED_EDGE('',*,*,#196,.T.);
#236=ORIENTED_EDGE('',*,*,#197,.T.);
#237=ORIENTED_EDGE('',*,*,#196,.F.);
#238=ORIENTED_EDGE('',*,*,#190,.T.);
#239=ORIENTED_EDGE('',*,*,#198,.T.);
#240=ORIENTED_EDGE('',*,*,#199,.T.);
#241=ORIENTED_EDGE('',*,*,#198,.F.);
#242=ORIENTED_EDGE('',*,*,#189,.T.);
#243=ORIENTED_EDGE('',*,*,#200,.T.);
#244=ORIENTED_EDGE('',*,*,#201,.T.);
#245=ORIENTED_EDGE('',*,*,#200,.F.);
#246=ORIENTED_EDGE('',*,*,#188,.T.);
#247=ORIENTED_EDGE('',*,*,#202,.T.);
#248=ORIENTED_EDGE('',*,*,#203,.T.);
#249=ORIENTED_EDGE('',*,*,#202,.F.);
#250=ORIENTED_EDGE('',*,*,#193,.T.);
#251=ORIENTED_EDGE('',*,*,#204,.T.);
#252=ORIENTED_EDGE('',*,*,#205,.T.);
#253=ORIENTED_EDGE('',*,*,#204,.F.);
#254=ORIENTED_EDGE('',*,*,#192,.T.);
#255=ORIENTED_EDGE('',*,*,#195,.T.);
#256=ORIENTED_EDGE('',*,*,#185,.T.);
#257=ORIENTED_EDGE('',*,*,#201,.F.);
#258=ORIENTED_EDGE('',*,*,#203,.F.);
#259=ORIENTED_EDGE('',*,*,#205,.F.);
#260=ORIENTED_EDGE('',*,*,#194,.F.);
#261=ORIENTED_EDGE('',*,*,#197,.F.);
#262=ORIENTED_EDGE('',*,*,#199,.F.);
#263=ORIENTED_EDGE('',*,*,#186,.F.);
#264=ORIENTED_EDGE('',*,*,#184,.T.);
#265=ORIENTED_EDGE('',*,*,#183,.F.);
#266=ORIENTED_EDGE('',*,*,#187,.T.);
#267=ORIENTED_EDGE('',*,*,#182,.F.);
#268=ORIENTED_EDGE('',*,*,#180,.F.);
#269=ORIENTED_EDGE('',*,*,#174,.T.);
#270=CONICAL_SURFACE('',#299,15.8625,37.);
#271=CONICAL_SURFACE('',#304,15.99625,60.);
#272=CONICAL_SURFACE('',#315,18.85,44.9999999999998);
#273=CONICAL_SURFACE('',#317,4.,60.);
#274=CONICAL_SURFACE('',#322,8.64999999999999,60.);
#275=ADVANCED_FACE('',(#76,#62),#270,.T.);
#276=ADVANCED_FACE('',(#77,#63),#58,.T.);
#277=ADVANCED_FACE('',(#78,#64),#271,.T.);
#278=ADVANCED_FACE('',(#79,#65),#56,.F.);
#279=ADVANCED_FACE('',(#80,#66),#59,.T.);
#280=ADVANCED_FACE('',(#81,#67),#57,.F.);
#281=ADVANCED_FACE('',(#82,#68),#60,.T.);
#282=ADVANCED_FACE('',(#83,#69),#272,.T.);
#283=ADVANCED_FACE('',(#84),#273,.F.);
#284=ADVANCED_FACE('',(#85,#70),#61,.F.);
#285=ADVANCED_FACE('',(#86,#71),#274,.F.);
#286=ADVANCED_FACE('',(#87),#39,.F.);
#287=ADVANCED_FACE('',(#88),#40,.F.);
#288=ADVANCED_FACE('',(#89),#41,.F.);
#289=ADVANCED_FACE('',(#90),#42,.F.);
#290=ADVANCED_FACE('',(#91),#43,.F.);
#291=ADVANCED_FACE('',(#92),#44,.F.);
#292=ADVANCED_FACE('',(#93,#72),#45,.F.);
#293=ADVANCED_FACE('',(#94,#73),#46,.F.);
#294=ADVANCED_FACE('',(#95,#74),#47,.F.);
#295=ADVANCED_FACE('',(#96,#75),#48,.T.);
#296=ADVANCED_FACE('',(#97),#49,.T.);
#297=CLOSED_SHELL('',(#275,#276,#277,#278,#279,#280,#281,#282,#283,#284,
#285,#286,#287,#288,#289,#290,#291,#292,#293,#294,#295,#296));
#298=AXIS2_PLACEMENT_3D('placement',#421,#335,#336);
#299=AXIS2_PLACEMENT_3D('',#422,#337,#338);
#300=AXIS2_PLACEMENT_3D('',#424,#339,#340);
#301=AXIS2_PLACEMENT_3D('',#426,#341,#342);
#302=AXIS2_PLACEMENT_3D('',#427,#343,#344);
#303=AXIS2_PLACEMENT_3D('',#429,#345,#346);
#304=AXIS2_PLACEMENT_3D('',#430,#347,#348);
#305=AXIS2_PLACEMENT_3D('',#432,#349,#350);
#306=AXIS2_PLACEMENT_3D('',#433,#351,#352);
#307=AXIS2_PLACEMENT_3D('',#435,#353,#354);
#308=AXIS2_PLACEMENT_3D('',#436,#355,#356);
#309=AXIS2_PLACEMENT_3D('',#438,#357,#358);
#310=AXIS2_PLACEMENT_3D('',#439,#359,#360);
#311=AXIS2_PLACEMENT_3D('',#441,#361,#362);
#312=AXIS2_PLACEMENT_3D('',#442,#363,#364);
#313=AXIS2_PLACEMENT_3D('',#444,#365,#366);
#314=AXIS2_PLACEMENT_3D('',#446,#367,#368);
#315=AXIS2_PLACEMENT_3D('',#447,#369,#370);
#316=AXIS2_PLACEMENT_3D('',#449,#371,#372);
#317=AXIS2_PLACEMENT_3D('',#450,#373,#374);
#318=AXIS2_PLACEMENT_3D('',#452,#375,#376);
#319=AXIS2_PLACEMENT_3D('',#453,#377,#378);
#320=AXIS2_PLACEMENT_3D('',#455,#379,#380);
#321=AXIS2_PLACEMENT_3D('',#457,#381,#382);
#322=AXIS2_PLACEMENT_3D('',#458,#383,#384);
#323=AXIS2_PLACEMENT_3D('',#460,#385,#386);
#324=AXIS2_PLACEMENT_3D('',#485,#387,#388);
#325=AXIS2_PLACEMENT_3D('',#491,#392,#393);
#326=AXIS2_PLACEMENT_3D('',#495,#396,#397);
#327=AXIS2_PLACEMENT_3D('',#499,#400,#401);
#328=AXIS2_PLACEMENT_3D('',#503,#404,#405);
#329=AXIS2_PLACEMENT_3D('',#507,#408,#409);
#330=AXIS2_PLACEMENT_3D('',#509,#411,#412);
#331=AXIS2_PLACEMENT_3D('',#510,#413,#414);
#332=AXIS2_PLACEMENT_3D('',#511,#415,#416);
#333=AXIS2_PLACEMENT_3D('',#512,#417,#418);
#334=AXIS2_PLACEMENT_3D('',#513,#419,#420);
#335=DIRECTION('axis',(0.,0.,1.));
#336=DIRECTION('refdir',(1.,0.,0.));
#337=DIRECTION('center_axis',(-1.,0.,0.));
#338=DIRECTION('ref_axis',(0.,1.,0.));
#339=DIRECTION('center_axis',(1.,0.,0.));
#340=DIRECTION('ref_axis',(0.,1.,0.));
#341=DIRECTION('center_axis',(1.,0.,0.));
#342=DIRECTION('ref_axis',(0.,1.,0.));
#343=DIRECTION('center_axis',(1.,0.,0.));
#344=DIRECTION('ref_axis',(0.,1.,0.));
#345=DIRECTION('center_axis',(1.,0.,0.));
#346=DIRECTION('ref_axis',(0.,1.,0.));
#347=DIRECTION('center_axis',(1.,0.,0.));
#348=DIRECTION('ref_axis',(0.,1.,0.));
#349=DIRECTION('center_axis',(1.,0.,0.));
#350=DIRECTION('ref_axis',(0.,1.,0.));
#351=DIRECTION('center_axis',(1.,-1.97980487696815E-16,-7.14768650882143E-15));
#352=DIRECTION('ref_axis',(-7.14168514371517E-15,0.,-1.));
#353=DIRECTION('center_axis',(1.,0.,0.));
#354=DIRECTION('ref_axis',(0.,1.,0.));
#355=DIRECTION('center_axis',(1.,0.,0.));
#356=DIRECTION('ref_axis',(0.,1.,0.));
#357=DIRECTION('center_axis',(1.,0.,0.));
#358=DIRECTION('ref_axis',(0.,1.,0.));
#359=DIRECTION('center_axis',(1.,-1.27093271647587E-16,-3.58765757561515E-15));
#360=DIRECTION('ref_axis',(-3.58801008422233E-15,0.,-1.));
#361=DIRECTION('center_axis',(1.,0.,0.));
#362=DIRECTION('ref_axis',(0.,1.,0.));
#363=DIRECTION('center_axis',(-1.,0.,0.));
#364=DIRECTION('ref_axis',(0.,1.,0.));
#365=DIRECTION('center_axis',(-1.,0.,0.));
#366=DIRECTION('ref_axis',(0.,-1.,0.));
#367=DIRECTION('center_axis',(-1.,0.,0.));
#368=DIRECTION('ref_axis',(0.,1.,0.));
#369=DIRECTION('center_axis',(1.,0.,0.));
#370=DIRECTION('ref_axis',(0.,-1.,0.));
#371=DIRECTION('center_axis',(1.,0.,0.));
#372=DIRECTION('ref_axis',(0.,-1.,0.));
#373=DIRECTION('center_axis',(-1.,3.074233E-17,0.));
#374=DIRECTION('ref_axis',(3.074233E-17,1.,0.));
#375=DIRECTION('center_axis',(1.,0.,0.));
#376=DIRECTION('ref_axis',(0.,1.,0.));
#377=DIRECTION('center_axis',(1.,-3.074233E-17,0.));
#378=DIRECTION('ref_axis',(3.074233E-17,1.,0.));
#379=DIRECTION('center_axis',(1.,0.,0.));
#380=DIRECTION('ref_axis',(0.,1.,0.));
#381=DIRECTION('center_axis',(1.,0.,0.));
#382=DIRECTION('ref_axis',(0.,1.,0.));
#383=DIRECTION('center_axis',(-1.,3.074233E-17,0.));
#384=DIRECTION('ref_axis',(3.074233E-17,1.,0.));
#385=DIRECTION('center_axis',(1.,0.,0.));
#386=DIRECTION('ref_axis',(0.,1.,0.));
#387=DIRECTION('center_axis',(1.748148E-16,0.866025403784439,0.499999999999999));
#388=DIRECTION('ref_axis',(0.,0.499999999999999,-0.866025403784439));
#389=DIRECTION('',(7.691851E-16,-0.499999999999999,0.866025403784439));
#390=DIRECTION('',(1.,0.,0.));
#391=DIRECTION('',(1.,0.,0.));
#392=DIRECTION('center_axis',(1.748148E-16,0.866025403784438,-0.500000000000001));
#393=DIRECTION('ref_axis',(0.,-0.500000000000002,-0.866025403784438));
#394=DIRECTION('',(-7.691851E-16,0.500000000000001,0.866025403784438));
#395=DIRECTION('',(1.,0.,0.));
#396=DIRECTION('center_axis',(0.,0.,-1.));
#397=DIRECTION('ref_axis',(0.,-1.,0.));
#398=DIRECTION('',(0.,1.,0.));
#399=DIRECTION('',(1.,0.,0.));
#400=DIRECTION('center_axis',(-1.748148E-16,-0.866025403784439,-0.499999999999999));
#401=DIRECTION('ref_axis',(0.,-0.499999999999999,0.866025403784439));
#402=DIRECTION('',(0.,0.499999999999999,-0.866025403784439));
#403=DIRECTION('',(1.,0.,0.));
#404=DIRECTION('center_axis',(-1.748148E-16,-0.866025403784438,0.500000000000001));
#405=DIRECTION('ref_axis',(0.,0.500000000000002,0.866025403784438));
#406=DIRECTION('',(0.,-0.500000000000001,-0.866025403784438));
#407=DIRECTION('',(1.,0.,0.));
#408=DIRECTION('center_axis',(0.,0.,1.));
#409=DIRECTION('ref_axis',(0.,1.,0.));
#410=DIRECTION('',(0.,-1.,0.));
#411=DIRECTION('center_axis',(-1.,0.,0.));
#412=DIRECTION('ref_axis',(0.,0.,1.));
#413=DIRECTION('center_axis',(1.,0.,0.));
#414=DIRECTION('ref_axis',(0.,0.,-1.));
#415=DIRECTION('center_axis',(1.,0.,0.));
#416=DIRECTION('ref_axis',(0.,0.,-1.));
#417=DIRECTION('center_axis',(1.,0.,0.));
#418=DIRECTION('ref_axis',(0.,0.,-1.));
#419=DIRECTION('center_axis',(1.,0.,0.));
#420=DIRECTION('ref_axis',(0.,0.,-1.));
#421=CARTESIAN_POINT('',(0.,0.,0.));
#422=CARTESIAN_POINT('Origin',(14.1544805645955,0.,0.));
#423=CARTESIAN_POINT('',(15.1,-15.15,1.855279E-15));
#424=CARTESIAN_POINT('Origin',(15.1,0.,0.));
#425=CARTESIAN_POINT('',(13.208961129191,-16.575,2.029785E-15));
#426=CARTESIAN_POINT('Origin',(13.208961129191,0.,0.));
#427=CARTESIAN_POINT('Origin',(8.68579081653768,0.,0.));
#428=CARTESIAN_POINT('',(4.1626205038844,-16.575,2.029785E-15));
#429=CARTESIAN_POINT('Origin',(4.1626205038844,0.,0.));
#430=CARTESIAN_POINT('Origin',(3.82847903559091,0.,0.));
#431=CARTESIAN_POINT('',(3.49433756729742,-1.888037E-15,-15.4175));
#432=CARTESIAN_POINT('Origin',(3.49433756729742,0.,0.));
#433=CARTESIAN_POINT('Origin',(3.06132486540507,-8.19483370051444E-14,-2.90323320939478E-13));
#434=CARTESIAN_POINT('',(3.0613248654052,-15.1675,1.857422E-15));
#435=CARTESIAN_POINT('Origin',(3.0613248654052,0.,0.));
#436=CARTESIAN_POINT('Origin',(1.7806624327026,0.,0.));
#437=CARTESIAN_POINT('',(0.5,-1.857422E-15,-15.1675));
#438=CARTESIAN_POINT('Origin',(0.5,0.,0.));
#439=CARTESIAN_POINT('Origin',(0.499999999999938,-3.69843045078255E-14,
-1.34892097491957E-13));
#440=CARTESIAN_POINT('',(-1.4432899320127E-14,15.6675,0.));
#441=CARTESIAN_POINT('Origin',(-1.4432899320127E-14,0.,0.));
#442=CARTESIAN_POINT('Origin',(-6.66133814775094E-15,0.,0.));
#443=CARTESIAN_POINT('',(-4.10000000000001,-19.,2.326752E-15));
#444=CARTESIAN_POINT('Origin',(-4.10000000000001,0.,0.));
#445=CARTESIAN_POINT('',(-6.66133814775094E-15,-19.,-2.326752E-15));
#446=CARTESIAN_POINT('Origin',(-6.66133814775094E-15,0.,0.));
#447=CARTESIAN_POINT('Origin',(-4.25000000000001,0.,0.));
#448=CARTESIAN_POINT('',(-4.40000000000001,18.7,0.));
#449=CARTESIAN_POINT('Origin',(-4.40000000000001,0.,0.));
#450=CARTESIAN_POINT('Origin',(8.90940107675851,-7.105427E-15,0.));
#451=CARTESIAN_POINT('',(6.6,6.92820323027552,4.));
#452=CARTESIAN_POINT('Origin',(6.60000000000001,-7.105427E-15,0.));
#453=CARTESIAN_POINT('Origin',(5.85,-7.105427E-15,0.));
#454=CARTESIAN_POINT('',(5.1,-9.45000000000001,1.157253E-15));
#455=CARTESIAN_POINT('Origin',(5.1,-7.105427E-15,0.));
#456=CARTESIAN_POINT('',(6.6,-9.45000000000001,1.157253E-15));
#457=CARTESIAN_POINT('Origin',(6.6,-7.105427E-15,0.));
#458=CARTESIAN_POINT('Origin',(-4.02472232502674,-7.105427E-15,0.));
#459=CARTESIAN_POINT('',(-4.40000000000001,-9.30000000000001,1.138884E-15));
#460=CARTESIAN_POINT('Origin',(-4.40000000000001,-7.09389E-15,0.));
#461=CARTESIAN_POINT('',(-4.36397582986982,-4.61880215351702,-8.));
#462=CARTESIAN_POINT('',(-4.36397582986983,-9.23760430703401,8.881784E-15));
#463=CARTESIAN_POINT('Ctrl Pts',(-4.36397582990594,-9.23760430709658,1.08363974097827E-10));
#464=CARTESIAN_POINT('Ctrl Pts',(-3.03064249652294,-6.92820323029898,-3.99999999995936));
#465=CARTESIAN_POINT('Ctrl Pts',(-4.36397582986982,-4.61880215351702,-8.));
#466=CARTESIAN_POINT('',(-4.36397582986982,4.618802153517,-8.));
#467=CARTESIAN_POINT('Ctrl Pts',(-4.36397582990594,-4.61880215364214,-8.));
#468=CARTESIAN_POINT('Ctrl Pts',(-3.03064249652294,-4.69299044070226E-11,
-8.));
#469=CARTESIAN_POINT('Ctrl Pts',(-4.36397582986982,4.618802153517,-8.));
#470=CARTESIAN_POINT('',(-4.36397582986982,9.23760430703401,-1.110223E-14));
#471=CARTESIAN_POINT('Ctrl Pts',(-4.36397582990594,4.61880215345444,-8.00000000010836));
#472=CARTESIAN_POINT('Ctrl Pts',(-3.03064249652294,6.92820323025204,-4.00000000004064));
#473=CARTESIAN_POINT('Ctrl Pts',(-4.36397582986982,9.23760430703401,-1.00554508731324E-14));
#474=CARTESIAN_POINT('',(-4.36397582986982,4.61880215351701,8.));
#475=CARTESIAN_POINT('Ctrl Pts',(-4.36397582986983,9.23760430703402,-7.23992462865536E-15));
#476=CARTESIAN_POINT('Ctrl Pts',(-3.03064249652295,6.92820323025206,4.00000000004063));
#477=CARTESIAN_POINT('Ctrl Pts',(-4.36397582990595,4.61880215345446,8.00000000010836));
#478=CARTESIAN_POINT('',(-4.36397582986982,-4.618802153517,8.));
#479=CARTESIAN_POINT('Ctrl Pts',(-4.36397582986982,4.61880215351701,8.00000000000001));
#480=CARTESIAN_POINT('Ctrl Pts',(-3.03064249652294,-4.69185801321714E-11,
8.));
#481=CARTESIAN_POINT('Ctrl Pts',(-4.36397582990594,-4.61880215364212,8.));
#482=CARTESIAN_POINT('Ctrl Pts',(-4.36397582986982,-4.618802153517,8.));
#483=CARTESIAN_POINT('Ctrl Pts',(-3.03064249652294,-6.92820323029897,3.99999999995937));
#484=CARTESIAN_POINT('Ctrl Pts',(-4.36397582990594,-9.23760430709657,-1.08349695357587E-10));
#485=CARTESIAN_POINT('Origin',(-4.39999999999999,4.61880215351702,8.));
#486=CARTESIAN_POINT('',(5.1,9.23760430703401,-1.110223E-14));
#487=CARTESIAN_POINT('',(5.10000000000001,4.61880215351702,8.));
#488=CARTESIAN_POINT('',(5.1,9.23760430703401,-1.110223E-14));
#489=CARTESIAN_POINT('',(-4.36397582986982,4.61880215351701,8.));
#490=CARTESIAN_POINT('',(-4.36397582986982,9.23760430703401,-1.110223E-14));
#491=CARTESIAN_POINT('Origin',(-4.39999999999996,9.23760430703401,-1.110223E-14));
#492=CARTESIAN_POINT('',(5.10000000000001,4.618802153517,-8.));
#493=CARTESIAN_POINT('',(5.10000000000001,4.618802153517,-8.));
#494=CARTESIAN_POINT('',(-4.36397582986982,4.618802153517,-8.));
#495=CARTESIAN_POINT('Origin',(-4.39999999999999,4.618802153517,-8.));
#496=CARTESIAN_POINT('',(5.1,-4.61880215351702,-8.));
#497=CARTESIAN_POINT('',(5.1,-4.61880215351702,-8.));
#498=CARTESIAN_POINT('',(-4.36397582986982,-4.61880215351702,-8.));
#499=CARTESIAN_POINT('Origin',(-4.40000000000005,-4.61880215351702,-8.));
#500=CARTESIAN_POINT('',(5.1,-9.23760430703401,8.881784E-15));
#501=CARTESIAN_POINT('',(5.1,-9.23760430703401,8.881784E-15));
#502=CARTESIAN_POINT('',(-4.36397582986983,-9.23760430703401,8.881784E-15));
#503=CARTESIAN_POINT('Origin',(-4.40000000000008,-9.23760430703401,8.881784E-15));
#504=CARTESIAN_POINT('',(5.1,-4.618802153517,8.));
#505=CARTESIAN_POINT('',(5.1,-4.618802153517,8.));
#506=CARTESIAN_POINT('',(-4.36397582986982,-4.618802153517,8.));
#507=CARTESIAN_POINT('Origin',(-4.40000000000005,-4.618802153517,8.));
#508=CARTESIAN_POINT('',(5.10000000000001,4.61880215351702,8.));
#509=CARTESIAN_POINT('Origin',(5.1,8.72499999999999,0.));
#510=CARTESIAN_POINT('Origin',(6.6,8.72499999999999,0.));
#511=CARTESIAN_POINT('Origin',(-4.40000000000001,1.72727272727273,0.));
#512=CARTESIAN_POINT('Origin',(-7.7715611723761E-15,1.72727272727273,0.));
#513=CARTESIAN_POINT('Origin',(15.1,7.575,0.));
#514=UNCERTAINTY_MEASURE_WITH_UNIT(LENGTH_MEASURE(0.01),#518,
'DISTANCE_ACCURACY_VALUE',
'Maximum model space distance between geometric entities at asserted c
onnectivities');
#515=UNCERTAINTY_MEASURE_WITH_UNIT(LENGTH_MEASURE(1.E-6),#518,
'DISTANCE_ACCURACY_VALUE',
'Maximum model space distance between geometric entities at asserted c
onnectivities');
#516=(
GEOMETRIC_REPRESENTATION_CONTEXT(3)
GLOBAL_UNCERTAINTY_ASSIGNED_CONTEXT((#514))
GLOBAL_UNIT_ASSIGNED_CONTEXT((#518,#521,#519))
REPRESENTATION_CONTEXT('','3D')
);
#517=(
GEOMETRIC_REPRESENTATION_CONTEXT(3)
GLOBAL_UNCERTAINTY_ASSIGNED_CONTEXT((#515))
GLOBAL_UNIT_ASSIGNED_CONTEXT((#518,#521,#519))
REPRESENTATION_CONTEXT('','3D')
);
#518=(
LENGTH_UNIT()
NAMED_UNIT(*)
SI_UNIT(.MILLI.,.METRE.)
);
#519=(
NAMED_UNIT(*)
SI_UNIT($,.STERADIAN.)
SOLID_ANGLE_UNIT()
);
#520=DIMENSIONAL_EXPONENTS(0.,0.,0.,0.,0.,0.,0.);
#521=(
CONVERSION_BASED_UNIT('degree',#523)
NAMED_UNIT(#520)
PLANE_ANGLE_UNIT()
);
#522=(
NAMED_UNIT(*)
PLANE_ANGLE_UNIT()
SI_UNIT($,.RADIAN.)
);
#523=PLANE_ANGLE_MEASURE_WITH_UNIT(PLANE_ANGLE_MEASURE(0.01745329252),#522);
#524=SHAPE_DEFINITION_REPRESENTATION(#525,#526);
#525=PRODUCT_DEFINITION_SHAPE('',$,#528);
#526=SHAPE_REPRESENTATION('',(#298),#516);
#527=PRODUCT_DEFINITION_CONTEXT('part definition',#532,'design');
#528=PRODUCT_DEFINITION('207507','207507',#529,#527);
#529=PRODUCT_DEFINITION_FORMATION('',$,#534);
#530=PRODUCT_RELATED_PRODUCT_CATEGORY('207507','207507',(#534));
#531=APPLICATION_PROTOCOL_DEFINITION('international standard',
'automotive_design',2009,#532);
#532=APPLICATION_CONTEXT(
'Core Data for Automotive Mechanical Design Process');
#533=PRODUCT_CONTEXT('part definition',#532,'mechanical');
#534=PRODUCT('207507','207507',$,(#533));
#535=PRESENTATION_STYLE_ASSIGNMENT((#536));
#536=SURFACE_STYLE_USAGE(.BOTH.,#537);
#537=SURFACE_SIDE_STYLE($,(#538));
#538=SURFACE_STYLE_FILL_AREA(#539);
#539=FILL_AREA_STYLE($,(#540));
#540=FILL_AREA_STYLE_COLOUR($,#541);
#541=COLOUR_RGB('',0.749019607843137,0.749019607843137,0.749019607843137);
ENDSEC;
END-ISO-10303-21;
