ISO-10303-21;
HEADER;
/* Generated by software containing ST-Developer
 * from STEP Tools, Inc. (www.steptools.com) 
 */

FILE_DESCRIPTION(
/* description */ (''),
/* implementation_level */ '2;1');

FILE_NAME(
/* name */ 'H:\\CAD\\neutral\\3d\\70078\\ffsd_112.stp',
/* time_stamp */ '2018-03-08T11:57:57+01:00',
/* author */ ('leitheu\X\DFer'),
/* organization */ (''),
/* preprocessor_version */ 'ST-DEVELOPER v15.6',
/* originating_system */ 'Autodesk Inventor LT ',
/* authorisation */ '');

FILE_SCHEMA (('AUTOMOTIVE_DESIGN { 1 0 10303 214 3 1 1 }'));
ENDSEC;

DATA;
#10=MECHANICAL_DESIGN_GEOMETRIC_PRESENTATION_REPRESENTATION('',(#16),#266);
#11=DIMENSIONAL_EXPONENTS(0.,0.,0.,0.,0.,0.,0.);
#12=(
CONVERSION_BASED_UNIT('degree',#13)
NAMED_UNIT(#11)
PLANE_ANGLE_UNIT()
);
#13=PLANE_ANGLE_MEASURE_WITH_UNIT(PLANE_ANGLE_MEASURE(0.01745329252),#269);
#14=SHAPE_REPRESENTATION_RELATIONSHIP('SRR','None',#272,#15);
#15=ADVANCED_BREP_SHAPE_REPRESENTATION($,(#17),#265);
#16=STYLED_ITEM('',(#282),#17);
#17=MANIFOLD_SOLID_BREP('Volumenk\X\F6rper1',#150);
#18=PLANE('',#157);
#19=PLANE('',#165);
#20=PLANE('',#175);
#21=CONICAL_SURFACE('',#155,17.591875,0.785398163397);
#22=CONICAL_SURFACE('',#159,28.649625,0.785398163397);
#23=CONICAL_SURFACE('',#163,28.649625,0.785398163397);
#24=CONICAL_SURFACE('',#169,23.92495,0.785398163397);
#25=CONICAL_SURFACE('',#173,23.92495,0.785398163397);
#26=FACE_BOUND('',#51,.T.);
#27=FACE_BOUND('',#53,.T.);
#28=FACE_BOUND('',#55,.T.);
#29=FACE_BOUND('',#57,.T.);
#30=FACE_BOUND('',#59,.T.);
#31=FACE_BOUND('',#61,.T.);
#32=FACE_BOUND('',#63,.T.);
#33=FACE_BOUND('',#65,.T.);
#34=FACE_BOUND('',#67,.T.);
#35=FACE_BOUND('',#69,.T.);
#36=FACE_BOUND('',#71,.T.);
#37=FACE_BOUND('',#73,.T.);
#38=FACE_OUTER_BOUND('',#50,.T.);
#39=FACE_OUTER_BOUND('',#52,.T.);
#40=FACE_OUTER_BOUND('',#54,.T.);
#41=FACE_OUTER_BOUND('',#56,.T.);
#42=FACE_OUTER_BOUND('',#58,.T.);
#43=FACE_OUTER_BOUND('',#60,.T.);
#44=FACE_OUTER_BOUND('',#62,.T.);
#45=FACE_OUTER_BOUND('',#64,.T.);
#46=FACE_OUTER_BOUND('',#66,.T.);
#47=FACE_OUTER_BOUND('',#68,.T.);
#48=FACE_OUTER_BOUND('',#70,.T.);
#49=FACE_OUTER_BOUND('',#72,.T.);
#50=EDGE_LOOP('',(#110));
#51=EDGE_LOOP('',(#111));
#52=EDGE_LOOP('',(#112));
#53=EDGE_LOOP('',(#113));
#54=EDGE_LOOP('',(#114));
#55=EDGE_LOOP('',(#115));
#56=EDGE_LOOP('',(#116));
#57=EDGE_LOOP('',(#117));
#58=EDGE_LOOP('',(#118));
#59=EDGE_LOOP('',(#119));
#60=EDGE_LOOP('',(#120));
#61=EDGE_LOOP('',(#121));
#62=EDGE_LOOP('',(#122));
#63=EDGE_LOOP('',(#123));
#64=EDGE_LOOP('',(#124));
#65=EDGE_LOOP('',(#125));
#66=EDGE_LOOP('',(#126));
#67=EDGE_LOOP('',(#127));
#68=EDGE_LOOP('',(#128));
#69=EDGE_LOOP('',(#129));
#70=EDGE_LOOP('',(#130));
#71=EDGE_LOOP('',(#131));
#72=EDGE_LOOP('',(#132));
#73=EDGE_LOOP('',(#133));
#74=CIRCLE('',#153,17.);
#75=CIRCLE('',#154,17.);
#76=CIRCLE('',#156,17.5);
#77=CIRCLE('',#158,28.);
#78=CIRCLE('',#160,28.5);
#79=CIRCLE('',#162,28.5);
#80=CIRCLE('',#164,28.);
#81=CIRCLE('',#166,22.);
#82=CIRCLE('',#168,22.);
#83=CIRCLE('',#170,23.8);
#84=CIRCLE('',#172,23.8);
#85=CIRCLE('',#174,22.);
#86=VERTEX_POINT('',#228);
#87=VERTEX_POINT('',#230);
#88=VERTEX_POINT('',#233);
#89=VERTEX_POINT('',#236);
#90=VERTEX_POINT('',#239);
#91=VERTEX_POINT('',#242);
#92=VERTEX_POINT('',#245);
#93=VERTEX_POINT('',#248);
#94=VERTEX_POINT('',#251);
#95=VERTEX_POINT('',#254);
#96=VERTEX_POINT('',#257);
#97=VERTEX_POINT('',#260);
#98=EDGE_CURVE('',#86,#86,#74,.T.);
#99=EDGE_CURVE('',#87,#87,#75,.T.);
#100=EDGE_CURVE('',#88,#88,#76,.T.);
#101=EDGE_CURVE('',#89,#89,#77,.T.);
#102=EDGE_CURVE('',#90,#90,#78,.T.);
#103=EDGE_CURVE('',#91,#91,#79,.T.);
#104=EDGE_CURVE('',#92,#92,#80,.T.);
#105=EDGE_CURVE('',#93,#93,#81,.T.);
#106=EDGE_CURVE('',#94,#94,#82,.T.);
#107=EDGE_CURVE('',#95,#95,#83,.T.);
#108=EDGE_CURVE('',#96,#96,#84,.T.);
#109=EDGE_CURVE('',#97,#97,#85,.T.);
#110=ORIENTED_EDGE('',*,*,#98,.F.);
#111=ORIENTED_EDGE('',*,*,#99,.T.);
#112=ORIENTED_EDGE('',*,*,#98,.T.);
#113=ORIENTED_EDGE('',*,*,#100,.F.);
#114=ORIENTED_EDGE('',*,*,#101,.F.);
#115=ORIENTED_EDGE('',*,*,#100,.T.);
#116=ORIENTED_EDGE('',*,*,#101,.T.);
#117=ORIENTED_EDGE('',*,*,#102,.F.);
#118=ORIENTED_EDGE('',*,*,#102,.T.);
#119=ORIENTED_EDGE('',*,*,#103,.F.);
#120=ORIENTED_EDGE('',*,*,#104,.F.);
#121=ORIENTED_EDGE('',*,*,#103,.T.);
#122=ORIENTED_EDGE('',*,*,#104,.T.);
#123=ORIENTED_EDGE('',*,*,#105,.F.);
#124=ORIENTED_EDGE('',*,*,#105,.T.);
#125=ORIENTED_EDGE('',*,*,#106,.F.);
#126=ORIENTED_EDGE('',*,*,#106,.T.);
#127=ORIENTED_EDGE('',*,*,#107,.F.);
#128=ORIENTED_EDGE('',*,*,#107,.T.);
#129=ORIENTED_EDGE('',*,*,#108,.F.);
#130=ORIENTED_EDGE('',*,*,#109,.F.);
#131=ORIENTED_EDGE('',*,*,#108,.T.);
#132=ORIENTED_EDGE('',*,*,#109,.T.);
#133=ORIENTED_EDGE('',*,*,#99,.F.);
#134=CYLINDRICAL_SURFACE('',#152,17.);
#135=CYLINDRICAL_SURFACE('',#161,28.5);
#136=CYLINDRICAL_SURFACE('',#167,22.);
#137=CYLINDRICAL_SURFACE('',#171,23.8);
#138=ADVANCED_FACE('',(#38,#26),#134,.F.);
#139=ADVANCED_FACE('',(#39,#27),#21,.F.);
#140=ADVANCED_FACE('',(#40,#28),#18,.T.);
#141=ADVANCED_FACE('',(#41,#29),#22,.T.);
#142=ADVANCED_FACE('',(#42,#30),#135,.T.);
#143=ADVANCED_FACE('',(#43,#31),#23,.T.);
#144=ADVANCED_FACE('',(#44,#32),#19,.T.);
#145=ADVANCED_FACE('',(#45,#33),#136,.T.);
#146=ADVANCED_FACE('',(#46,#34),#24,.T.);
#147=ADVANCED_FACE('',(#47,#35),#137,.T.);
#148=ADVANCED_FACE('',(#48,#36),#25,.T.);
#149=ADVANCED_FACE('',(#49,#37),#20,.T.);
#150=CLOSED_SHELL('',(#138,#139,#140,#141,#142,#143,#144,#145,#146,#147,
#148,#149));
#151=AXIS2_PLACEMENT_3D('placement',#226,#176,#177);
#152=AXIS2_PLACEMENT_3D('',#227,#178,#179);
#153=AXIS2_PLACEMENT_3D('',#229,#180,#181);
#154=AXIS2_PLACEMENT_3D('',#231,#182,#183);
#155=AXIS2_PLACEMENT_3D('',#232,#184,#185);
#156=AXIS2_PLACEMENT_3D('',#234,#186,#187);
#157=AXIS2_PLACEMENT_3D('',#235,#188,#189);
#158=AXIS2_PLACEMENT_3D('',#237,#190,#191);
#159=AXIS2_PLACEMENT_3D('',#238,#192,#193);
#160=AXIS2_PLACEMENT_3D('',#240,#194,#195);
#161=AXIS2_PLACEMENT_3D('',#241,#196,#197);
#162=AXIS2_PLACEMENT_3D('',#243,#198,#199);
#163=AXIS2_PLACEMENT_3D('',#244,#200,#201);
#164=AXIS2_PLACEMENT_3D('',#246,#202,#203);
#165=AXIS2_PLACEMENT_3D('',#247,#204,#205);
#166=AXIS2_PLACEMENT_3D('',#249,#206,#207);
#167=AXIS2_PLACEMENT_3D('',#250,#208,#209);
#168=AXIS2_PLACEMENT_3D('',#252,#210,#211);
#169=AXIS2_PLACEMENT_3D('',#253,#212,#213);
#170=AXIS2_PLACEMENT_3D('',#255,#214,#215);
#171=AXIS2_PLACEMENT_3D('',#256,#216,#217);
#172=AXIS2_PLACEMENT_3D('',#258,#218,#219);
#173=AXIS2_PLACEMENT_3D('',#259,#220,#221);
#174=AXIS2_PLACEMENT_3D('',#261,#222,#223);
#175=AXIS2_PLACEMENT_3D('',#262,#224,#225);
#176=DIRECTION('axis',(0.,0.,1.));
#177=DIRECTION('refdir',(1.,0.,0.));
#178=DIRECTION('center_axis',(-1.,0.,0.));
#179=DIRECTION('ref_axis',(0.,-1.,-6.530723674266E-18));
#180=DIRECTION('center_axis',(-1.,0.,0.));
#181=DIRECTION('ref_axis',(0.,-1.,-5.551115123126E-17));
#182=DIRECTION('center_axis',(-1.,0.,0.));
#183=DIRECTION('ref_axis',(0.,-1.,-5.551115123126E-17));
#184=DIRECTION('center_axis',(1.,0.,0.));
#185=DIRECTION('ref_axis',(0.,-1.,3.628824324635E-17));
#186=DIRECTION('center_axis',(-1.,0.,0.));
#187=DIRECTION('ref_axis',(0.,-1.,3.64787565234E-17));
#188=DIRECTION('center_axis',(1.,0.,0.));
#189=DIRECTION('ref_axis',(0.,0.,1.));
#190=DIRECTION('center_axis',(-1.,0.,0.));
#191=DIRECTION('ref_axis',(0.,-1.,1.110223024625E-16));
#192=DIRECTION('center_axis',(-1.,9.920447276502E-16,-9.920447276502E-16));
#193=DIRECTION('ref_axis',(-9.920447276502E-16,-1.,1.743828622822E-17));
#194=DIRECTION('center_axis',(-1.,0.,0.));
#195=DIRECTION('ref_axis',(0.,-1.,6.232831015439E-17));
#196=DIRECTION('center_axis',(-1.,0.,0.));
#197=DIRECTION('ref_axis',(0.,-1.,-3.311191476952E-17));
#198=DIRECTION('center_axis',(-1.,0.,0.));
#199=DIRECTION('ref_axis',(0.,-1.,6.232831015439E-17));
#200=DIRECTION('center_axis',(1.,1.240055909563E-16,1.240055909563E-16));
#201=DIRECTION('ref_axis',(1.240055909563E-16,-1.,-7.556590698898E-17));
#202=DIRECTION('center_axis',(-1.,0.,0.));
#203=DIRECTION('ref_axis',(0.,-1.,1.110223024625E-16));
#204=DIRECTION('center_axis',(-1.,0.,0.));
#205=DIRECTION('ref_axis',(0.,0.,1.));
#206=DIRECTION('center_axis',(-1.,0.,0.));
#207=DIRECTION('ref_axis',(0.,-1.,-1.892425610157E-17));
#208=DIRECTION('center_axis',(-1.,0.,0.));
#209=DIRECTION('ref_axis',(0.,-1.,5.046468293751E-17));
#210=DIRECTION('center_axis',(-1.,0.,0.));
#211=DIRECTION('ref_axis',(0.,-1.,-1.892425610157E-17));
#212=DIRECTION('center_axis',(-1.,0.,0.));
#213=DIRECTION('ref_axis',(0.,-1.,-3.016286203342E-17));
#214=DIRECTION('center_axis',(-1.,0.,0.));
#215=DIRECTION('ref_axis',(0.,-1.,6.997203936713E-17));
#216=DIRECTION('center_axis',(-1.,0.,0.));
#217=DIRECTION('ref_axis',(0.,-1.,3.265361837133E-17));
#218=DIRECTION('center_axis',(-1.,0.,0.));
#219=DIRECTION('ref_axis',(0.,-1.,6.997203936713E-17));
#220=DIRECTION('center_axis',(1.,0.,0.));
#221=DIRECTION('ref_axis',(0.,-1.,4.408418297191E-17));
#222=DIRECTION('center_axis',(-1.,0.,0.));
#223=DIRECTION('ref_axis',(0.,-1.,-1.892425610157E-17));
#224=DIRECTION('center_axis',(-1.,0.,0.));
#225=DIRECTION('ref_axis',(0.,0.,1.));
#226=CARTESIAN_POINT('',(0.,0.,0.));
#227=CARTESIAN_POINT('Origin',(162.75,-1.665334536938E-16,1.110223024625E-16));
#228=CARTESIAN_POINT('',(155.,-17.,0.));
#229=CARTESIAN_POINT('Origin',(155.,-9.436895709314E-16,9.436895709314E-16));
#230=CARTESIAN_POINT('',(0.,-17.,0.));
#231=CARTESIAN_POINT('Origin',(0.,-9.436895709314E-16,9.436895709314E-16));
#232=CARTESIAN_POINT('Origin',(155.591875,-7.910339050454E-16,-6.383782391595E-16));
#233=CARTESIAN_POINT('',(155.5,-17.5,0.));
#234=CARTESIAN_POINT('Origin',(155.5,-1.804112415016E-16,-6.383782391595E-16));
#235=CARTESIAN_POINT('Origin',(155.5,0.,-3.552713678801E-15));
#236=CARTESIAN_POINT('',(155.5,-28.,0.));
#237=CARTESIAN_POINT('Origin',(155.5,-1.08246744901E-15,-3.10862446895E-15));
#238=CARTESIAN_POINT('Origin',(154.850375,-1.609823385706E-15,-4.996003610813E-16));
#239=CARTESIAN_POINT('',(155.,-28.5,0.));
#240=CARTESIAN_POINT('Origin',(155.,-4.996003610813E-16,-1.7763568394E-15));
#241=CARTESIAN_POINT('Origin',(161.85,-1.915134717478E-15,9.436895709314E-16));
#242=CARTESIAN_POINT('',(18.,-28.5,0.));
#243=CARTESIAN_POINT('Origin',(18.,-4.996003610813E-16,-1.7763568394E-15));
#244=CARTESIAN_POINT('Origin',(18.149625,-3.885780586188E-16,2.164934898019E-15));
#245=CARTESIAN_POINT('',(17.5,-28.,0.));
#246=CARTESIAN_POINT('Origin',(17.5,-1.08246744901E-15,-3.10862446895E-15));
#247=CARTESIAN_POINT('Origin',(17.5,-3.552713678801E-15,-3.552713678801E-15));
#248=CARTESIAN_POINT('',(17.5,-22.,0.));
#249=CARTESIAN_POINT('Origin',(17.5,1.33226762955E-15,4.163336342344E-16));
#250=CARTESIAN_POINT('Origin',(17.632074640089,-6.938893903907E-16,-1.110223024625E-15));
#251=CARTESIAN_POINT('',(14.858507198229,-22.,0.));
#252=CARTESIAN_POINT('Origin',(14.858507198229,1.33226762955E-15,4.163336342344E-16));
#253=CARTESIAN_POINT('Origin',(12.933557198229,-1.110223024625E-16,7.216449660064E-16));
#254=CARTESIAN_POINT('',(13.058507198229,-23.8,0.));
#255=CARTESIAN_POINT('Origin',(13.058507198229,6.106226635438E-16,-1.665334536938E-15));
#256=CARTESIAN_POINT('Origin',(13.62143255814,-5.551115123126E-16,-7.771561172376E-16));
#257=CARTESIAN_POINT('',(1.8,-23.8,0.));
#258=CARTESIAN_POINT('Origin',(1.8,6.106226635438E-16,-1.665334536938E-15));
#259=CARTESIAN_POINT('Origin',(1.92495,-1.193489751472E-15,-1.054711873394E-15));
#260=CARTESIAN_POINT('',(0.,-22.,0.));
#261=CARTESIAN_POINT('Origin',(0.,1.33226762955E-15,4.163336342344E-16));
#262=CARTESIAN_POINT('Origin',(0.,3.552713678801E-15,0.));
#263=UNCERTAINTY_MEASURE_WITH_UNIT(LENGTH_MEASURE(0.01),#267,
'DISTANCE_ACCURACY_VALUE',
'Maximum model space distance between geometric entities at asserted c
onnectivities');
#264=UNCERTAINTY_MEASURE_WITH_UNIT(LENGTH_MEASURE(1.E-6),#267,
'DISTANCE_ACCURACY_VALUE',
'Maximum model space distance between geometric entities at asserted c
onnectivities');
#265=(
GEOMETRIC_REPRESENTATION_CONTEXT(3)
GLOBAL_UNCERTAINTY_ASSIGNED_CONTEXT((#263))
GLOBAL_UNIT_ASSIGNED_CONTEXT((#267,#269,#268))
REPRESENTATION_CONTEXT('','3D')
);
#266=(
GEOMETRIC_REPRESENTATION_CONTEXT(3)
GLOBAL_UNCERTAINTY_ASSIGNED_CONTEXT((#264))
GLOBAL_UNIT_ASSIGNED_CONTEXT((#267,#12,#268))
REPRESENTATION_CONTEXT('','3D')
);
#267=(
LENGTH_UNIT()
NAMED_UNIT(*)
SI_UNIT(.MILLI.,.METRE.)
);
#268=(
NAMED_UNIT(*)
SI_UNIT($,.STERADIAN.)
SOLID_ANGLE_UNIT()
);
#269=(
NAMED_UNIT(*)
PLANE_ANGLE_UNIT()
SI_UNIT($,.RADIAN.)
);
#270=SHAPE_DEFINITION_REPRESENTATION(#271,#272);
#271=PRODUCT_DEFINITION_SHAPE('',$,#274);
#272=SHAPE_REPRESENTATION('',(#151),#265);
#273=PRODUCT_DEFINITION_CONTEXT('part definition',#278,'design');
#274=PRODUCT_DEFINITION('FFS-112','FFS-112',#275,#273);
#275=PRODUCT_DEFINITION_FORMATION('',$,#280);
#276=PRODUCT_RELATED_PRODUCT_CATEGORY('FFS-112','FFS-112',(#280));
#277=APPLICATION_PROTOCOL_DEFINITION('international standard',
'automotive_design',2009,#278);
#278=APPLICATION_CONTEXT(
'Core Data for Automotive Mechanical Design Process');
#279=PRODUCT_CONTEXT('part definition',#278,'mechanical');
#280=PRODUCT('FFS-112','FFS-112',$,(#279));
#281=PRESENTATION_STYLE_ASSIGNMENT((#283));
#282=PRESENTATION_STYLE_ASSIGNMENT((#284));
#283=SURFACE_STYLE_USAGE(.BOTH.,#285);
#284=SURFACE_STYLE_USAGE(.BOTH.,#286);
#285=SURFACE_SIDE_STYLE($,(#287));
#286=SURFACE_SIDE_STYLE($,(#288));
#287=SURFACE_STYLE_FILL_AREA(#289);
#288=SURFACE_STYLE_FILL_AREA(#290);
#289=FILL_AREA_STYLE($,(#291));
#290=FILL_AREA_STYLE($,(#292));
#291=FILL_AREA_STYLE_COLOUR($,#293);
#292=FILL_AREA_STYLE_COLOUR($,#294);
#293=COLOUR_RGB('',0.749019607843137,0.749019607843137,0.749019607843137);
#294=COLOUR_RGB('',0.941176470588235,0.627450980392157,0.431372549019608);
ENDSEC;
END-ISO-10303-21;
