ISO-10303-21;
HEADER;
/* Generated by software containing ST-Developer
 * from STEP Tools, Inc. (www.steptools.com) 
 */

FILE_DESCRIPTION(
/* description */ (''),
/* implementation_level */ '2;1');

FILE_NAME(
/* name */ 'H:\\cad\\neutral\\3d\\70363\\iqsgt_12h13_msv.stp',
/* time_stamp */ '2017-11-03T11:13:46+01:00',
/* author */ ('Hamoud'),
/* organization */ (''),
/* preprocessor_version */ 'ST-DEVELOPER v15.6',
/* originating_system */ 'Autodesk Inventor LT ',
/* authorisation */ '');

FILE_SCHEMA (('AUTOMOTIVE_DESIGN { 1 0 10303 214 3 1 1 }'));
ENDSEC;

DATA;
#10=MECHANICAL_DESIGN_GEOMETRIC_PRESENTATION_REPRESENTATION('',(#13),#483);
#11=SHAPE_REPRESENTATION_RELATIONSHIP('SRR','None',#492,#12);
#12=ADVANCED_BREP_SHAPE_REPRESENTATION($,(#14),#482);
#13=STYLED_ITEM('',(#502),#14);
#14=MANIFOLD_SOLID_BREP('Solid',#268);
#15=CYLINDRICAL_SURFACE('',#275,5.);
#16=CYLINDRICAL_SURFACE('',#283,6.7);
#17=CYLINDRICAL_SURFACE('',#289,6.7);
#18=CYLINDRICAL_SURFACE('',#295,6.7);
#19=CYLINDRICAL_SURFACE('',#301,6.7);
#20=CYLINDRICAL_SURFACE('',#305,7.2);
#21=CYLINDRICAL_SURFACE('',#309,6.);
#22=CYLINDRICAL_SURFACE('',#315,6.);
#23=PLANE('',#273);
#24=PLANE('',#277);
#25=PLANE('',#281);
#26=PLANE('',#287);
#27=PLANE('',#293);
#28=PLANE('',#299);
#29=PLANE('',#303);
#30=PLANE('',#307);
#31=FACE_BOUND('',#78,.T.);
#32=FACE_BOUND('',#80,.T.);
#33=FACE_BOUND('',#82,.T.);
#34=FACE_BOUND('',#84,.T.);
#35=FACE_BOUND('',#86,.T.);
#36=FACE_BOUND('',#88,.T.);
#37=FACE_BOUND('',#90,.T.);
#38=FACE_BOUND('',#92,.T.);
#39=FACE_BOUND('',#94,.T.);
#40=FACE_BOUND('',#96,.T.);
#41=FACE_BOUND('',#98,.T.);
#42=FACE_BOUND('',#100,.T.);
#43=FACE_BOUND('',#102,.T.);
#44=FACE_BOUND('',#104,.T.);
#45=FACE_BOUND('',#106,.T.);
#46=FACE_BOUND('',#108,.T.);
#47=FACE_BOUND('',#110,.T.);
#48=FACE_BOUND('',#112,.T.);
#49=FACE_BOUND('',#114,.T.);
#50=FACE_BOUND('',#116,.T.);
#51=FACE_BOUND('',#118,.T.);
#52=FACE_BOUND('',#120,.T.);
#53=FACE_BOUND('',#122,.T.);
#54=FACE_OUTER_BOUND('',#77,.T.);
#55=FACE_OUTER_BOUND('',#79,.T.);
#56=FACE_OUTER_BOUND('',#81,.T.);
#57=FACE_OUTER_BOUND('',#83,.T.);
#58=FACE_OUTER_BOUND('',#85,.T.);
#59=FACE_OUTER_BOUND('',#87,.T.);
#60=FACE_OUTER_BOUND('',#89,.T.);
#61=FACE_OUTER_BOUND('',#91,.T.);
#62=FACE_OUTER_BOUND('',#93,.T.);
#63=FACE_OUTER_BOUND('',#95,.T.);
#64=FACE_OUTER_BOUND('',#97,.T.);
#65=FACE_OUTER_BOUND('',#99,.T.);
#66=FACE_OUTER_BOUND('',#101,.T.);
#67=FACE_OUTER_BOUND('',#103,.T.);
#68=FACE_OUTER_BOUND('',#105,.T.);
#69=FACE_OUTER_BOUND('',#107,.T.);
#70=FACE_OUTER_BOUND('',#109,.T.);
#71=FACE_OUTER_BOUND('',#111,.T.);
#72=FACE_OUTER_BOUND('',#113,.T.);
#73=FACE_OUTER_BOUND('',#115,.T.);
#74=FACE_OUTER_BOUND('',#117,.T.);
#75=FACE_OUTER_BOUND('',#119,.T.);
#76=FACE_OUTER_BOUND('',#121,.T.);
#77=EDGE_LOOP('',(#192));
#78=EDGE_LOOP('',(#193));
#79=EDGE_LOOP('',(#194));
#80=EDGE_LOOP('',(#195));
#81=EDGE_LOOP('',(#196));
#82=EDGE_LOOP('',(#197));
#83=EDGE_LOOP('',(#198));
#84=EDGE_LOOP('',(#199));
#85=EDGE_LOOP('',(#200));
#86=EDGE_LOOP('',(#201));
#87=EDGE_LOOP('',(#202));
#88=EDGE_LOOP('',(#203));
#89=EDGE_LOOP('',(#204));
#90=EDGE_LOOP('',(#205));
#91=EDGE_LOOP('',(#206));
#92=EDGE_LOOP('',(#207));
#93=EDGE_LOOP('',(#208));
#94=EDGE_LOOP('',(#209));
#95=EDGE_LOOP('',(#210));
#96=EDGE_LOOP('',(#211));
#97=EDGE_LOOP('',(#212));
#98=EDGE_LOOP('',(#213));
#99=EDGE_LOOP('',(#214));
#100=EDGE_LOOP('',(#215));
#101=EDGE_LOOP('',(#216));
#102=EDGE_LOOP('',(#217));
#103=EDGE_LOOP('',(#218));
#104=EDGE_LOOP('',(#219));
#105=EDGE_LOOP('',(#220));
#106=EDGE_LOOP('',(#221));
#107=EDGE_LOOP('',(#222));
#108=EDGE_LOOP('',(#223));
#109=EDGE_LOOP('',(#224));
#110=EDGE_LOOP('',(#225));
#111=EDGE_LOOP('',(#226));
#112=EDGE_LOOP('',(#227));
#113=EDGE_LOOP('',(#228));
#114=EDGE_LOOP('',(#229));
#115=EDGE_LOOP('',(#230));
#116=EDGE_LOOP('',(#231));
#117=EDGE_LOOP('',(#232));
#118=EDGE_LOOP('',(#233));
#119=EDGE_LOOP('',(#234));
#120=EDGE_LOOP('',(#235));
#121=EDGE_LOOP('',(#236));
#122=EDGE_LOOP('',(#237));
#123=CIRCLE('',#271,5.42264973081037);
#124=CIRCLE('',#272,6.);
#125=CIRCLE('',#274,5.);
#126=CIRCLE('',#276,5.);
#127=CIRCLE('',#278,6.4);
#128=CIRCLE('',#280,7.2);
#129=CIRCLE('',#282,6.7);
#130=CIRCLE('',#284,6.7);
#131=CIRCLE('',#286,7.2);
#132=CIRCLE('',#288,6.7);
#133=CIRCLE('',#290,6.7);
#134=CIRCLE('',#292,7.2);
#135=CIRCLE('',#294,6.7);
#136=CIRCLE('',#296,6.7);
#137=CIRCLE('',#298,7.2);
#138=CIRCLE('',#300,6.7);
#139=CIRCLE('',#302,6.7);
#140=CIRCLE('',#304,7.2);
#141=CIRCLE('',#306,7.2);
#142=CIRCLE('',#308,6.);
#143=CIRCLE('',#310,6.);
#144=CIRCLE('',#312,5.75);
#145=CIRCLE('',#314,6.);
#146=VERTEX_POINT('',#412);
#147=VERTEX_POINT('',#414);
#148=VERTEX_POINT('',#417);
#149=VERTEX_POINT('',#420);
#150=VERTEX_POINT('',#423);
#151=VERTEX_POINT('',#426);
#152=VERTEX_POINT('',#429);
#153=VERTEX_POINT('',#432);
#154=VERTEX_POINT('',#435);
#155=VERTEX_POINT('',#438);
#156=VERTEX_POINT('',#441);
#157=VERTEX_POINT('',#444);
#158=VERTEX_POINT('',#447);
#159=VERTEX_POINT('',#450);
#160=VERTEX_POINT('',#453);
#161=VERTEX_POINT('',#456);
#162=VERTEX_POINT('',#459);
#163=VERTEX_POINT('',#462);
#164=VERTEX_POINT('',#465);
#165=VERTEX_POINT('',#468);
#166=VERTEX_POINT('',#471);
#167=VERTEX_POINT('',#474);
#168=VERTEX_POINT('',#477);
#169=EDGE_CURVE('',#146,#146,#123,.T.);
#170=EDGE_CURVE('',#147,#147,#124,.T.);
#171=EDGE_CURVE('',#148,#148,#125,.T.);
#172=EDGE_CURVE('',#149,#149,#126,.T.);
#173=EDGE_CURVE('',#150,#150,#127,.T.);
#174=EDGE_CURVE('',#151,#151,#128,.T.);
#175=EDGE_CURVE('',#152,#152,#129,.T.);
#176=EDGE_CURVE('',#153,#153,#130,.T.);
#177=EDGE_CURVE('',#154,#154,#131,.T.);
#178=EDGE_CURVE('',#155,#155,#132,.T.);
#179=EDGE_CURVE('',#156,#156,#133,.T.);
#180=EDGE_CURVE('',#157,#157,#134,.T.);
#181=EDGE_CURVE('',#158,#158,#135,.T.);
#182=EDGE_CURVE('',#159,#159,#136,.T.);
#183=EDGE_CURVE('',#160,#160,#137,.T.);
#184=EDGE_CURVE('',#161,#161,#138,.T.);
#185=EDGE_CURVE('',#162,#162,#139,.T.);
#186=EDGE_CURVE('',#163,#163,#140,.T.);
#187=EDGE_CURVE('',#164,#164,#141,.T.);
#188=EDGE_CURVE('',#165,#165,#142,.T.);
#189=EDGE_CURVE('',#166,#166,#143,.T.);
#190=EDGE_CURVE('',#167,#167,#144,.T.);
#191=EDGE_CURVE('',#168,#168,#145,.T.);
#192=ORIENTED_EDGE('',*,*,#169,.F.);
#193=ORIENTED_EDGE('',*,*,#170,.T.);
#194=ORIENTED_EDGE('',*,*,#169,.T.);
#195=ORIENTED_EDGE('',*,*,#171,.F.);
#196=ORIENTED_EDGE('',*,*,#172,.F.);
#197=ORIENTED_EDGE('',*,*,#171,.T.);
#198=ORIENTED_EDGE('',*,*,#173,.F.);
#199=ORIENTED_EDGE('',*,*,#172,.T.);
#200=ORIENTED_EDGE('',*,*,#174,.F.);
#201=ORIENTED_EDGE('',*,*,#173,.T.);
#202=ORIENTED_EDGE('',*,*,#174,.T.);
#203=ORIENTED_EDGE('',*,*,#175,.F.);
#204=ORIENTED_EDGE('',*,*,#176,.F.);
#205=ORIENTED_EDGE('',*,*,#175,.T.);
#206=ORIENTED_EDGE('',*,*,#177,.F.);
#207=ORIENTED_EDGE('',*,*,#176,.T.);
#208=ORIENTED_EDGE('',*,*,#177,.T.);
#209=ORIENTED_EDGE('',*,*,#178,.F.);
#210=ORIENTED_EDGE('',*,*,#179,.F.);
#211=ORIENTED_EDGE('',*,*,#178,.T.);
#212=ORIENTED_EDGE('',*,*,#180,.F.);
#213=ORIENTED_EDGE('',*,*,#179,.T.);
#214=ORIENTED_EDGE('',*,*,#180,.T.);
#215=ORIENTED_EDGE('',*,*,#181,.F.);
#216=ORIENTED_EDGE('',*,*,#182,.F.);
#217=ORIENTED_EDGE('',*,*,#181,.T.);
#218=ORIENTED_EDGE('',*,*,#183,.F.);
#219=ORIENTED_EDGE('',*,*,#182,.T.);
#220=ORIENTED_EDGE('',*,*,#183,.T.);
#221=ORIENTED_EDGE('',*,*,#184,.F.);
#222=ORIENTED_EDGE('',*,*,#185,.F.);
#223=ORIENTED_EDGE('',*,*,#184,.T.);
#224=ORIENTED_EDGE('',*,*,#186,.F.);
#225=ORIENTED_EDGE('',*,*,#185,.T.);
#226=ORIENTED_EDGE('',*,*,#187,.F.);
#227=ORIENTED_EDGE('',*,*,#186,.T.);
#228=ORIENTED_EDGE('',*,*,#187,.T.);
#229=ORIENTED_EDGE('',*,*,#188,.F.);
#230=ORIENTED_EDGE('',*,*,#189,.F.);
#231=ORIENTED_EDGE('',*,*,#188,.T.);
#232=ORIENTED_EDGE('',*,*,#190,.F.);
#233=ORIENTED_EDGE('',*,*,#189,.T.);
#234=ORIENTED_EDGE('',*,*,#191,.F.);
#235=ORIENTED_EDGE('',*,*,#190,.T.);
#236=ORIENTED_EDGE('',*,*,#170,.F.);
#237=ORIENTED_EDGE('',*,*,#191,.T.);
#238=CONICAL_SURFACE('',#270,6.,30.0000000000001);
#239=CONICAL_SURFACE('',#279,7.2,14.0362434679264);
#240=CONICAL_SURFACE('',#285,7.2,14.9999999999999);
#241=CONICAL_SURFACE('',#291,7.2,14.9999999999999);
#242=CONICAL_SURFACE('',#297,7.2,14.9999999999999);
#243=CONICAL_SURFACE('',#311,6.,44.9999999999998);
#244=CONICAL_SURFACE('',#313,6.,45.0000000000004);
#245=ADVANCED_FACE('',(#54,#31),#238,.T.);
#246=ADVANCED_FACE('',(#55,#32),#23,.T.);
#247=ADVANCED_FACE('',(#56,#33),#15,.F.);
#248=ADVANCED_FACE('',(#57,#34),#24,.T.);
#249=ADVANCED_FACE('',(#58,#35),#239,.T.);
#250=ADVANCED_FACE('',(#59,#36),#25,.T.);
#251=ADVANCED_FACE('',(#60,#37),#16,.T.);
#252=ADVANCED_FACE('',(#61,#38),#240,.T.);
#253=ADVANCED_FACE('',(#62,#39),#26,.T.);
#254=ADVANCED_FACE('',(#63,#40),#17,.T.);
#255=ADVANCED_FACE('',(#64,#41),#241,.T.);
#256=ADVANCED_FACE('',(#65,#42),#27,.T.);
#257=ADVANCED_FACE('',(#66,#43),#18,.T.);
#258=ADVANCED_FACE('',(#67,#44),#242,.T.);
#259=ADVANCED_FACE('',(#68,#45),#28,.T.);
#260=ADVANCED_FACE('',(#69,#46),#19,.T.);
#261=ADVANCED_FACE('',(#70,#47),#29,.T.);
#262=ADVANCED_FACE('',(#71,#48),#20,.T.);
#263=ADVANCED_FACE('',(#72,#49),#30,.T.);
#264=ADVANCED_FACE('',(#73,#50),#21,.T.);
#265=ADVANCED_FACE('',(#74,#51),#243,.T.);
#266=ADVANCED_FACE('',(#75,#52),#244,.T.);
#267=ADVANCED_FACE('',(#76,#53),#22,.T.);
#268=CLOSED_SHELL('',(#245,#246,#247,#248,#249,#250,#251,#252,#253,#254,
#255,#256,#257,#258,#259,#260,#261,#262,#263,#264,#265,#266,#267));
#269=AXIS2_PLACEMENT_3D('placement',#410,#316,#317);
#270=AXIS2_PLACEMENT_3D('',#411,#318,#319);
#271=AXIS2_PLACEMENT_3D('',#413,#320,#321);
#272=AXIS2_PLACEMENT_3D('',#415,#322,#323);
#273=AXIS2_PLACEMENT_3D('',#416,#324,#325);
#274=AXIS2_PLACEMENT_3D('',#418,#326,#327);
#275=AXIS2_PLACEMENT_3D('',#419,#328,#329);
#276=AXIS2_PLACEMENT_3D('',#421,#330,#331);
#277=AXIS2_PLACEMENT_3D('',#422,#332,#333);
#278=AXIS2_PLACEMENT_3D('',#424,#334,#335);
#279=AXIS2_PLACEMENT_3D('',#425,#336,#337);
#280=AXIS2_PLACEMENT_3D('',#427,#338,#339);
#281=AXIS2_PLACEMENT_3D('',#428,#340,#341);
#282=AXIS2_PLACEMENT_3D('',#430,#342,#343);
#283=AXIS2_PLACEMENT_3D('',#431,#344,#345);
#284=AXIS2_PLACEMENT_3D('',#433,#346,#347);
#285=AXIS2_PLACEMENT_3D('',#434,#348,#349);
#286=AXIS2_PLACEMENT_3D('',#436,#350,#351);
#287=AXIS2_PLACEMENT_3D('',#437,#352,#353);
#288=AXIS2_PLACEMENT_3D('',#439,#354,#355);
#289=AXIS2_PLACEMENT_3D('',#440,#356,#357);
#290=AXIS2_PLACEMENT_3D('',#442,#358,#359);
#291=AXIS2_PLACEMENT_3D('',#443,#360,#361);
#292=AXIS2_PLACEMENT_3D('',#445,#362,#363);
#293=AXIS2_PLACEMENT_3D('',#446,#364,#365);
#294=AXIS2_PLACEMENT_3D('',#448,#366,#367);
#295=AXIS2_PLACEMENT_3D('',#449,#368,#369);
#296=AXIS2_PLACEMENT_3D('',#451,#370,#371);
#297=AXIS2_PLACEMENT_3D('',#452,#372,#373);
#298=AXIS2_PLACEMENT_3D('',#454,#374,#375);
#299=AXIS2_PLACEMENT_3D('',#455,#376,#377);
#300=AXIS2_PLACEMENT_3D('',#457,#378,#379);
#301=AXIS2_PLACEMENT_3D('',#458,#380,#381);
#302=AXIS2_PLACEMENT_3D('',#460,#382,#383);
#303=AXIS2_PLACEMENT_3D('',#461,#384,#385);
#304=AXIS2_PLACEMENT_3D('',#463,#386,#387);
#305=AXIS2_PLACEMENT_3D('',#464,#388,#389);
#306=AXIS2_PLACEMENT_3D('',#466,#390,#391);
#307=AXIS2_PLACEMENT_3D('',#467,#392,#393);
#308=AXIS2_PLACEMENT_3D('',#469,#394,#395);
#309=AXIS2_PLACEMENT_3D('',#470,#396,#397);
#310=AXIS2_PLACEMENT_3D('',#472,#398,#399);
#311=AXIS2_PLACEMENT_3D('',#473,#400,#401);
#312=AXIS2_PLACEMENT_3D('',#475,#402,#403);
#313=AXIS2_PLACEMENT_3D('',#476,#404,#405);
#314=AXIS2_PLACEMENT_3D('',#478,#406,#407);
#315=AXIS2_PLACEMENT_3D('',#479,#408,#409);
#316=DIRECTION('axis',(0.,0.,1.));
#317=DIRECTION('refdir',(1.,0.,0.));
#318=DIRECTION('center_axis',(0.,0.,1.));
#319=DIRECTION('ref_axis',(1.,0.,0.));
#320=DIRECTION('center_axis',(0.,0.,-1.));
#321=DIRECTION('ref_axis',(1.,0.,0.));
#322=DIRECTION('center_axis',(0.,0.,-1.));
#323=DIRECTION('ref_axis',(1.,0.,0.));
#324=DIRECTION('center_axis',(-6.23283101543948E-17,0.,-1.));
#325=DIRECTION('ref_axis',(-1.,0.,0.));
#326=DIRECTION('center_axis',(0.,0.,-1.));
#327=DIRECTION('ref_axis',(1.,0.,0.));
#328=DIRECTION('center_axis',(-6.23283101543948E-17,0.,-1.));
#329=DIRECTION('ref_axis',(1.,0.,-6.23283101543948E-17));
#330=DIRECTION('center_axis',(0.,0.,-1.));
#331=DIRECTION('ref_axis',(1.,0.,0.));
#332=DIRECTION('center_axis',(6.23283101543948E-17,0.,1.));
#333=DIRECTION('ref_axis',(1.,0.,0.));
#334=DIRECTION('center_axis',(0.,0.,-1.));
#335=DIRECTION('ref_axis',(1.,0.,0.));
#336=DIRECTION('center_axis',(0.,0.,-1.));
#337=DIRECTION('ref_axis',(1.,0.,0.));
#338=DIRECTION('center_axis',(0.,0.,-1.));
#339=DIRECTION('ref_axis',(1.,0.,0.));
#340=DIRECTION('center_axis',(-6.23283101543948E-17,0.,-1.));
#341=DIRECTION('ref_axis',(-1.,0.,0.));
#342=DIRECTION('center_axis',(0.,0.,-1.));
#343=DIRECTION('ref_axis',(1.,0.,0.));
#344=DIRECTION('center_axis',(0.,0.,1.));
#345=DIRECTION('ref_axis',(1.,0.,0.));
#346=DIRECTION('center_axis',(0.,0.,-1.));
#347=DIRECTION('ref_axis',(1.,0.,0.));
#348=DIRECTION('center_axis',(0.,0.,-1.));
#349=DIRECTION('ref_axis',(1.,0.,0.));
#350=DIRECTION('center_axis',(0.,0.,-1.));
#351=DIRECTION('ref_axis',(1.,0.,0.));
#352=DIRECTION('center_axis',(-6.23283101543948E-17,0.,-1.));
#353=DIRECTION('ref_axis',(-1.,0.,0.));
#354=DIRECTION('center_axis',(0.,0.,-1.));
#355=DIRECTION('ref_axis',(1.,0.,0.));
#356=DIRECTION('center_axis',(0.,0.,1.));
#357=DIRECTION('ref_axis',(1.,0.,0.));
#358=DIRECTION('center_axis',(0.,0.,-1.));
#359=DIRECTION('ref_axis',(1.,0.,0.));
#360=DIRECTION('center_axis',(0.,0.,-1.));
#361=DIRECTION('ref_axis',(1.,0.,0.));
#362=DIRECTION('center_axis',(0.,0.,-1.));
#363=DIRECTION('ref_axis',(1.,0.,0.));
#364=DIRECTION('center_axis',(-6.23283101543948E-17,0.,-1.));
#365=DIRECTION('ref_axis',(-1.,0.,0.));
#366=DIRECTION('center_axis',(0.,0.,-1.));
#367=DIRECTION('ref_axis',(1.,0.,0.));
#368=DIRECTION('center_axis',(0.,0.,1.));
#369=DIRECTION('ref_axis',(1.,0.,0.));
#370=DIRECTION('center_axis',(0.,0.,-1.));
#371=DIRECTION('ref_axis',(1.,0.,0.));
#372=DIRECTION('center_axis',(0.,0.,-1.));
#373=DIRECTION('ref_axis',(1.,0.,0.));
#374=DIRECTION('center_axis',(0.,0.,-1.));
#375=DIRECTION('ref_axis',(1.,0.,0.));
#376=DIRECTION('center_axis',(-6.23283101543948E-17,0.,-1.));
#377=DIRECTION('ref_axis',(-1.,0.,0.));
#378=DIRECTION('center_axis',(0.,0.,-1.));
#379=DIRECTION('ref_axis',(1.,0.,0.));
#380=DIRECTION('center_axis',(5.9211894646675E-16,0.,1.));
#381=DIRECTION('ref_axis',(1.,0.,-5.9211894646675E-16));
#382=DIRECTION('center_axis',(0.,0.,-1.));
#383=DIRECTION('ref_axis',(1.,0.,0.));
#384=DIRECTION('center_axis',(6.23283101543948E-17,0.,1.));
#385=DIRECTION('ref_axis',(1.,0.,0.));
#386=DIRECTION('center_axis',(0.,0.,-1.));
#387=DIRECTION('ref_axis',(1.,0.,0.));
#388=DIRECTION('center_axis',(0.,0.,1.));
#389=DIRECTION('ref_axis',(1.,0.,0.));
#390=DIRECTION('center_axis',(0.,0.,-1.));
#391=DIRECTION('ref_axis',(1.,0.,0.));
#392=DIRECTION('center_axis',(-6.23283101543948E-17,0.,-1.));
#393=DIRECTION('ref_axis',(-1.,0.,0.));
#394=DIRECTION('center_axis',(0.,0.,-1.));
#395=DIRECTION('ref_axis',(1.,0.,0.));
#396=DIRECTION('center_axis',(0.,0.,1.));
#397=DIRECTION('ref_axis',(1.,0.,0.));
#398=DIRECTION('center_axis',(-2.96059473233375E-16,0.,-1.));
#399=DIRECTION('ref_axis',(1.,0.,-2.96059473233375E-16));
#400=DIRECTION('center_axis',(0.,0.,1.));
#401=DIRECTION('ref_axis',(1.,0.,0.));
#402=DIRECTION('center_axis',(6.17863248487044E-16,0.,-1.));
#403=DIRECTION('ref_axis',(1.,0.,6.17863248487044E-16));
#404=DIRECTION('center_axis',(0.,0.,-1.));
#405=DIRECTION('ref_axis',(1.,0.,0.));
#406=DIRECTION('center_axis',(0.,0.,-1.));
#407=DIRECTION('ref_axis',(1.,0.,0.));
#408=DIRECTION('center_axis',(0.,0.,1.));
#409=DIRECTION('ref_axis',(1.,0.,0.));
#410=CARTESIAN_POINT('',(0.,0.,0.));
#411=CARTESIAN_POINT('Origin',(24.9860016,16.1312,8.2331884));
#412=CARTESIAN_POINT('',(30.4086513308104,16.1312,7.2331884));
#413=CARTESIAN_POINT('Origin',(24.9860016,16.1312,7.2331884));
#414=CARTESIAN_POINT('',(30.9860016,16.1312,8.2331884));
#415=CARTESIAN_POINT('Origin',(24.9860016,16.1312,8.2331884));
#416=CARTESIAN_POINT('Origin',(29.9860016,16.1312,7.2331884));
#417=CARTESIAN_POINT('',(29.9860016,16.1312,7.2331884));
#418=CARTESIAN_POINT('Origin',(24.9860016,16.1312,7.2331884));
#419=CARTESIAN_POINT('Origin',(24.9860016,16.1312,64.2331884));
#420=CARTESIAN_POINT('',(29.9860016,16.1312,64.2331884));
#421=CARTESIAN_POINT('Origin',(24.9860016,16.1312,64.2331884));
#422=CARTESIAN_POINT('Origin',(31.3860016,16.1312,64.2331884));
#423=CARTESIAN_POINT('',(31.3860016,16.1312,64.2331884));
#424=CARTESIAN_POINT('Origin',(24.9860016,16.1312,64.2331884));
#425=CARTESIAN_POINT('Origin',(24.9860016,16.1312,61.0331884));
#426=CARTESIAN_POINT('',(32.1860016,16.1312,61.0331884));
#427=CARTESIAN_POINT('Origin',(24.9860016,16.1312,61.0331884));
#428=CARTESIAN_POINT('Origin',(31.6860016,16.1312,61.0331884));
#429=CARTESIAN_POINT('',(31.6860016,16.1312,61.0331884));
#430=CARTESIAN_POINT('Origin',(24.9860016,16.1312,61.0331884));
#431=CARTESIAN_POINT('Origin',(24.9860016,16.1312,56.0992138037844));
#432=CARTESIAN_POINT('',(31.6860016,16.1312,56.0992138037844));
#433=CARTESIAN_POINT('Origin',(24.9860016,16.1312,56.0992138037844));
#434=CARTESIAN_POINT('Origin',(24.9860016,16.1312,54.2331884));
#435=CARTESIAN_POINT('',(32.1860016,16.1312,54.2331884));
#436=CARTESIAN_POINT('Origin',(24.9860016,16.1312,54.2331884));
#437=CARTESIAN_POINT('Origin',(31.6860016,16.1312,54.2331884));
#438=CARTESIAN_POINT('',(31.6860016,16.1312,54.2331884));
#439=CARTESIAN_POINT('Origin',(24.9860016,16.1312,54.2331884));
#440=CARTESIAN_POINT('Origin',(24.9860016,16.1312,49.0992138037844));
#441=CARTESIAN_POINT('',(31.6860016,16.1312,49.0992138037844));
#442=CARTESIAN_POINT('Origin',(24.9860016,16.1312,49.0992138037844));
#443=CARTESIAN_POINT('Origin',(24.9860016,16.1312,47.2331884));
#444=CARTESIAN_POINT('',(32.1860016,16.1312,47.2331884));
#445=CARTESIAN_POINT('Origin',(24.9860016,16.1312,47.2331884));
#446=CARTESIAN_POINT('Origin',(31.6860016,16.1312,47.2331884));
#447=CARTESIAN_POINT('',(31.6860016,16.1312,47.2331884));
#448=CARTESIAN_POINT('Origin',(24.9860016,16.1312,47.2331884));
#449=CARTESIAN_POINT('Origin',(24.9860016,16.1312,42.0992138037844));
#450=CARTESIAN_POINT('',(31.6860016,16.1312,42.0992138037844));
#451=CARTESIAN_POINT('Origin',(24.9860016,16.1312,42.0992138037844));
#452=CARTESIAN_POINT('Origin',(24.9860016,16.1312,40.2331884));
#453=CARTESIAN_POINT('',(32.1860016,16.1312,40.2331884));
#454=CARTESIAN_POINT('Origin',(24.9860016,16.1312,40.2331884));
#455=CARTESIAN_POINT('Origin',(31.6860016,16.1312,40.2331884));
#456=CARTESIAN_POINT('',(31.6860016,16.1312,40.2331884));
#457=CARTESIAN_POINT('Origin',(24.9860016,16.1312,40.2331884));
#458=CARTESIAN_POINT('Origin',(24.9860016,16.1312,34.2331884));
#459=CARTESIAN_POINT('',(31.6860016,16.1312,34.2331884));
#460=CARTESIAN_POINT('Origin',(24.9860016,16.1312,34.2331884));
#461=CARTESIAN_POINT('Origin',(32.1860016,16.1312,34.2331884));
#462=CARTESIAN_POINT('',(32.1860016,16.1312,34.2331884));
#463=CARTESIAN_POINT('Origin',(24.9860016,16.1312,34.2331884));
#464=CARTESIAN_POINT('Origin',(24.9860016,16.1312,32.2331884));
#465=CARTESIAN_POINT('',(32.1860016,16.1312,32.2331884));
#466=CARTESIAN_POINT('Origin',(24.9860016,16.1312,32.2331884));
#467=CARTESIAN_POINT('Origin',(30.9860016,16.1312,32.2331884));
#468=CARTESIAN_POINT('',(30.9860016,16.1312,32.2331884));
#469=CARTESIAN_POINT('Origin',(24.9860016,16.1312,32.2331884));
#470=CARTESIAN_POINT('Origin',(24.9860016,16.1312,14.2831884));
#471=CARTESIAN_POINT('',(30.9860016,16.1312,14.2831884));
#472=CARTESIAN_POINT('Origin',(24.9860016,16.1312,14.2831884));
#473=CARTESIAN_POINT('Origin',(24.9860016,16.1312,14.2831884));
#474=CARTESIAN_POINT('',(30.7360016,16.1312,14.0331884));
#475=CARTESIAN_POINT('Origin',(24.9860016,16.1312,14.0331884));
#476=CARTESIAN_POINT('Origin',(24.9860016,16.1312,13.7831884));
#477=CARTESIAN_POINT('',(30.9860016,16.1312,13.7831884));
#478=CARTESIAN_POINT('Origin',(24.9860016,16.1312,13.7831884));
#479=CARTESIAN_POINT('Origin',(24.9860016,16.1312,8.2331884));
#480=UNCERTAINTY_MEASURE_WITH_UNIT(LENGTH_MEASURE(0.01),#484,
'DISTANCE_ACCURACY_VALUE',
'Maximum model space distance between geometric entities at asserted c
onnectivities');
#481=UNCERTAINTY_MEASURE_WITH_UNIT(LENGTH_MEASURE(1.E-6),#484,
'DISTANCE_ACCURACY_VALUE',
'Maximum model space distance between geometric entities at asserted c
onnectivities');
#482=(
GEOMETRIC_REPRESENTATION_CONTEXT(3)
GLOBAL_UNCERTAINTY_ASSIGNED_CONTEXT((#480))
GLOBAL_UNIT_ASSIGNED_CONTEXT((#484,#487,#485))
REPRESENTATION_CONTEXT('','3D')
);
#483=(
GEOMETRIC_REPRESENTATION_CONTEXT(3)
GLOBAL_UNCERTAINTY_ASSIGNED_CONTEXT((#481))
GLOBAL_UNIT_ASSIGNED_CONTEXT((#484,#487,#485))
REPRESENTATION_CONTEXT('','3D')
);
#484=(
LENGTH_UNIT()
NAMED_UNIT(*)
SI_UNIT(.MILLI.,.METRE.)
);
#485=(
NAMED_UNIT(*)
SI_UNIT($,.STERADIAN.)
SOLID_ANGLE_UNIT()
);
#486=DIMENSIONAL_EXPONENTS(0.,0.,0.,0.,0.,0.,0.);
#487=(
CONVERSION_BASED_UNIT('degree',#489)
NAMED_UNIT(#486)
PLANE_ANGLE_UNIT()
);
#488=(
NAMED_UNIT(*)
PLANE_ANGLE_UNIT()
SI_UNIT($,.RADIAN.)
);
#489=PLANE_ANGLE_MEASURE_WITH_UNIT(PLANE_ANGLE_MEASURE(0.01745329252),#488);
#490=SHAPE_DEFINITION_REPRESENTATION(#491,#492);
#491=PRODUCT_DEFINITION_SHAPE('',$,#494);
#492=SHAPE_REPRESENTATION('',(#269),#482);
#493=PRODUCT_DEFINITION_CONTEXT('part definition',#498,'design');
#494=PRODUCT_DEFINITION('iqsgt_12h13_msv','iqsgt_12h13_msv',#495,#493);
#495=PRODUCT_DEFINITION_FORMATION('',$,#500);
#496=PRODUCT_RELATED_PRODUCT_CATEGORY('iqsgt_12h13_msv',
'iqsgt_12h13_msv',(#500));
#497=APPLICATION_PROTOCOL_DEFINITION('international standard',
'automotive_design',2009,#498);
#498=APPLICATION_CONTEXT(
'Core Data for Automotive Mechanical Design Process');
#499=PRODUCT_CONTEXT('part definition',#498,'mechanical');
#500=PRODUCT('iqsgt_12h13_msv','iqsgt_12h13_msv',$,(#499));
#501=PRESENTATION_STYLE_ASSIGNMENT((#503));
#502=PRESENTATION_STYLE_ASSIGNMENT((#504));
#503=SURFACE_STYLE_USAGE(.BOTH.,#505);
#504=SURFACE_STYLE_USAGE(.BOTH.,#506);
#505=SURFACE_SIDE_STYLE($,(#507));
#506=SURFACE_SIDE_STYLE($,(#508));
#507=SURFACE_STYLE_FILL_AREA(#509);
#508=SURFACE_STYLE_FILL_AREA(#510);
#509=FILL_AREA_STYLE($,(#511));
#510=FILL_AREA_STYLE($,(#512));
#511=FILL_AREA_STYLE_COLOUR($,#513);
#512=FILL_AREA_STYLE_COLOUR($,#514);
#513=COLOUR_RGB('',0.749019607843137,0.749019607843137,0.749019607843137);
#514=COLOUR_RGB('',0.831372549019608,0.792156862745098,0.819607843137255);
ENDSEC;
END-ISO-10303-21;
