ISO-10303-21;
HEADER;
/* Generated by software containing ST-Developer
 * from STEP Tools, Inc. (www.steptools.com) 
 */

FILE_DESCRIPTION(
/* description */ (''),
/* implementation_level */ '2;1');

FILE_NAME(
/* name */ 'H:\\cad\\neutral\\3d\\70642\\buz_28.stp',
/* time_stamp */ '2016-12-12T10:38:55+01:00',
/* author */ ('leitheu\X\DFer'),
/* organization */ (''),
/* preprocessor_version */ 'ST-DEVELOPER v15.6',
/* originating_system */ 'Autodesk Inventor LT ',
/* authorisation */ '');

FILE_SCHEMA (('AUTOMOTIVE_DESIGN { 1 0 10303 214 3 1 1 }'));
ENDSEC;

DATA;
#10=MECHANICAL_DESIGN_GEOMETRIC_PRESENTATION_REPRESENTATION('',(#14,#15),
#278);
#11=TOROIDAL_SURFACE('',#179,14.,1.);
#12=SHAPE_REPRESENTATION_RELATIONSHIP('SRR','None',#287,#13);
#13=ADVANCED_BREP_SHAPE_REPRESENTATION($,(#16,#17),#277);
#14=STYLED_ITEM('',(#297),#16);
#15=STYLED_ITEM('',(#297),#17);
#16=MANIFOLD_SOLID_BREP('Solid1',#153);
#17=MANIFOLD_SOLID_BREP('Solid1_1',#154);
#18=CYLINDRICAL_SURFACE('',#170,16.);
#19=CYLINDRICAL_SURFACE('',#174,14.);
#20=PLANE('',#159);
#21=PLANE('',#162);
#22=PLANE('',#166);
#23=PLANE('',#178);
#24=FACE_BOUND('',#48,.T.);
#25=FACE_BOUND('',#51,.T.);
#26=FACE_BOUND('',#53,.T.);
#27=FACE_BOUND('',#55,.T.);
#28=FACE_BOUND('',#57,.T.);
#29=FACE_BOUND('',#59,.T.);
#30=FACE_BOUND('',#61,.T.);
#31=FACE_BOUND('',#63,.T.);
#32=FACE_BOUND('',#65,.T.);
#33=FACE_BOUND('',#67,.T.);
#34=FACE_OUTER_BOUND('',#47,.T.);
#35=FACE_OUTER_BOUND('',#49,.T.);
#36=FACE_OUTER_BOUND('',#50,.T.);
#37=FACE_OUTER_BOUND('',#52,.T.);
#38=FACE_OUTER_BOUND('',#54,.T.);
#39=FACE_OUTER_BOUND('',#56,.T.);
#40=FACE_OUTER_BOUND('',#58,.T.);
#41=FACE_OUTER_BOUND('',#60,.T.);
#42=FACE_OUTER_BOUND('',#62,.T.);
#43=FACE_OUTER_BOUND('',#64,.T.);
#44=FACE_OUTER_BOUND('',#66,.T.);
#45=FACE_OUTER_BOUND('',#68,.T.);
#46=FACE_OUTER_BOUND('',#69,.T.);
#47=EDGE_LOOP('',(#108));
#48=EDGE_LOOP('',(#109));
#49=EDGE_LOOP('',(#110));
#50=EDGE_LOOP('',(#111));
#51=EDGE_LOOP('',(#112));
#52=EDGE_LOOP('',(#113));
#53=EDGE_LOOP('',(#114));
#54=EDGE_LOOP('',(#115));
#55=EDGE_LOOP('',(#116));
#56=EDGE_LOOP('',(#117));
#57=EDGE_LOOP('',(#118));
#58=EDGE_LOOP('',(#119));
#59=EDGE_LOOP('',(#120));
#60=EDGE_LOOP('',(#121));
#61=EDGE_LOOP('',(#122));
#62=EDGE_LOOP('',(#123));
#63=EDGE_LOOP('',(#124));
#64=EDGE_LOOP('',(#125));
#65=EDGE_LOOP('',(#126));
#66=EDGE_LOOP('',(#127));
#67=EDGE_LOOP('',(#128));
#68=EDGE_LOOP('',(#129));
#69=EDGE_LOOP('',(#130,#132,#131,#133));
#70=CIRCLE('',#157,13.5);
#71=CIRCLE('',#158,13.7539864963815);
#72=CIRCLE('',#161,14.1676244356741);
#73=CIRCLE('',#163,12.973676469829);
#74=CIRCLE('',#165,13.526323530171);
#75=CIRCLE('',#167,14.7202714960161);
#76=CIRCLE('',#169,16.);
#77=CIRCLE('',#171,16.);
#78=CIRCLE('',#173,14.);
#79=CIRCLE('',#175,14.);
#80=CIRCLE('',#177,12.5);
#81=CIRCLE('',#180,1.);
#82=CIRCLE('',#181,15.);
#83=VERTEX_POINT('',#238);
#84=VERTEX_POINT('',#240);
#85=VERTEX_POINT('',#244);
#86=VERTEX_POINT('',#247);
#87=VERTEX_POINT('',#250);
#88=VERTEX_POINT('',#253);
#89=VERTEX_POINT('',#256);
#90=VERTEX_POINT('',#259);
#91=VERTEX_POINT('',#262);
#92=VERTEX_POINT('',#265);
#93=VERTEX_POINT('',#268);
#94=VERTEX_POINT('',#274);
#95=EDGE_CURVE('',#83,#83,#70,.T.);
#96=EDGE_CURVE('',#84,#84,#71,.T.);
#97=EDGE_CURVE('',#85,#85,#72,.T.);
#98=EDGE_CURVE('',#86,#86,#73,.T.);
#99=EDGE_CURVE('',#87,#87,#74,.T.);
#100=EDGE_CURVE('',#88,#88,#75,.T.);
#101=EDGE_CURVE('',#89,#89,#76,.T.);
#102=EDGE_CURVE('',#90,#90,#77,.T.);
#103=EDGE_CURVE('',#91,#91,#78,.T.);
#104=EDGE_CURVE('',#92,#92,#79,.T.);
#105=EDGE_CURVE('',#93,#93,#80,.T.);
#106=EDGE_CURVE('',#94,#94,#81,.T.);
#107=EDGE_CURVE('',#94,#94,#82,.T.);
#108=ORIENTED_EDGE('',*,*,#95,.T.);
#109=ORIENTED_EDGE('',*,*,#96,.T.);
#110=ORIENTED_EDGE('',*,*,#95,.F.);
#111=ORIENTED_EDGE('',*,*,#97,.F.);
#112=ORIENTED_EDGE('',*,*,#96,.F.);
#113=ORIENTED_EDGE('',*,*,#97,.T.);
#114=ORIENTED_EDGE('',*,*,#98,.F.);
#115=ORIENTED_EDGE('',*,*,#99,.F.);
#116=ORIENTED_EDGE('',*,*,#98,.T.);
#117=ORIENTED_EDGE('',*,*,#100,.F.);
#118=ORIENTED_EDGE('',*,*,#99,.T.);
#119=ORIENTED_EDGE('',*,*,#101,.F.);
#120=ORIENTED_EDGE('',*,*,#100,.T.);
#121=ORIENTED_EDGE('',*,*,#102,.F.);
#122=ORIENTED_EDGE('',*,*,#101,.T.);
#123=ORIENTED_EDGE('',*,*,#103,.F.);
#124=ORIENTED_EDGE('',*,*,#102,.T.);
#125=ORIENTED_EDGE('',*,*,#104,.F.);
#126=ORIENTED_EDGE('',*,*,#103,.T.);
#127=ORIENTED_EDGE('',*,*,#105,.F.);
#128=ORIENTED_EDGE('',*,*,#104,.T.);
#129=ORIENTED_EDGE('',*,*,#105,.T.);
#130=ORIENTED_EDGE('',*,*,#106,.T.);
#131=ORIENTED_EDGE('',*,*,#106,.F.);
#132=ORIENTED_EDGE('',*,*,#107,.T.);
#133=ORIENTED_EDGE('',*,*,#107,.F.);
#134=CONICAL_SURFACE('',#156,13.6269932481907,45.);
#135=CONICAL_SURFACE('',#160,13.933812217837,12.);
#136=CONICAL_SURFACE('',#164,13.25,12.);
#137=CONICAL_SURFACE('',#168,15.3601357480081,12.);
#138=CONICAL_SURFACE('',#172,15.,45.);
#139=CONICAL_SURFACE('',#176,13.25,60.0000000000002);
#140=ADVANCED_FACE('',(#34,#24),#134,.T.);
#141=ADVANCED_FACE('',(#35),#20,.T.);
#142=ADVANCED_FACE('',(#36,#25),#135,.T.);
#143=ADVANCED_FACE('',(#37,#26),#21,.T.);
#144=ADVANCED_FACE('',(#38,#27),#136,.T.);
#145=ADVANCED_FACE('',(#39,#28),#22,.T.);
#146=ADVANCED_FACE('',(#40,#29),#137,.T.);
#147=ADVANCED_FACE('',(#41,#30),#18,.T.);
#148=ADVANCED_FACE('',(#42,#31),#138,.T.);
#149=ADVANCED_FACE('',(#43,#32),#19,.T.);
#150=ADVANCED_FACE('',(#44,#33),#139,.T.);
#151=ADVANCED_FACE('',(#45),#23,.T.);
#152=ADVANCED_FACE('',(#46),#11,.T.);
#153=CLOSED_SHELL('',(#140,#141,#142,#143,#144,#145,#146,#147,#148,#149,
#150,#151));
#154=CLOSED_SHELL('',(#152));
#155=AXIS2_PLACEMENT_3D('placement',#236,#182,#183);
#156=AXIS2_PLACEMENT_3D('',#237,#184,#185);
#157=AXIS2_PLACEMENT_3D('',#239,#186,#187);
#158=AXIS2_PLACEMENT_3D('',#241,#188,#189);
#159=AXIS2_PLACEMENT_3D('',#242,#190,#191);
#160=AXIS2_PLACEMENT_3D('',#243,#192,#193);
#161=AXIS2_PLACEMENT_3D('',#245,#194,#195);
#162=AXIS2_PLACEMENT_3D('',#246,#196,#197);
#163=AXIS2_PLACEMENT_3D('',#248,#198,#199);
#164=AXIS2_PLACEMENT_3D('',#249,#200,#201);
#165=AXIS2_PLACEMENT_3D('',#251,#202,#203);
#166=AXIS2_PLACEMENT_3D('',#252,#204,#205);
#167=AXIS2_PLACEMENT_3D('',#254,#206,#207);
#168=AXIS2_PLACEMENT_3D('',#255,#208,#209);
#169=AXIS2_PLACEMENT_3D('',#257,#210,#211);
#170=AXIS2_PLACEMENT_3D('',#258,#212,#213);
#171=AXIS2_PLACEMENT_3D('',#260,#214,#215);
#172=AXIS2_PLACEMENT_3D('',#261,#216,#217);
#173=AXIS2_PLACEMENT_3D('',#263,#218,#219);
#174=AXIS2_PLACEMENT_3D('',#264,#220,#221);
#175=AXIS2_PLACEMENT_3D('',#266,#222,#223);
#176=AXIS2_PLACEMENT_3D('',#267,#224,#225);
#177=AXIS2_PLACEMENT_3D('',#269,#226,#227);
#178=AXIS2_PLACEMENT_3D('',#270,#228,#229);
#179=AXIS2_PLACEMENT_3D('',#271,#230,#231);
#180=AXIS2_PLACEMENT_3D('',#272,#232,#233);
#181=AXIS2_PLACEMENT_3D('',#273,#234,#235);
#182=DIRECTION('axis',(0.,0.,1.));
#183=DIRECTION('refdir',(1.,0.,0.));
#184=DIRECTION('center_axis',(1.,0.,-3.31588E-15));
#185=DIRECTION('ref_axis',(0.,-1.,0.));
#186=DIRECTION('center_axis',(1.,0.,0.));
#187=DIRECTION('ref_axis',(0.,-1.,0.));
#188=DIRECTION('center_axis',(-1.,0.,0.));
#189=DIRECTION('ref_axis',(0.,-1.,0.));
#190=DIRECTION('center_axis',(-1.,0.,0.));
#191=DIRECTION('ref_axis',(0.,0.,1.));
#192=DIRECTION('center_axis',(1.,0.,0.));
#193=DIRECTION('ref_axis',(0.,1.,0.));
#194=DIRECTION('center_axis',(1.,0.,0.));
#195=DIRECTION('ref_axis',(0.,1.,0.));
#196=DIRECTION('center_axis',(1.,0.,0.));
#197=DIRECTION('ref_axis',(0.,0.,-1.));
#198=DIRECTION('center_axis',(1.,0.,0.));
#199=DIRECTION('ref_axis',(0.,1.,0.));
#200=DIRECTION('center_axis',(1.,0.,0.));
#201=DIRECTION('ref_axis',(0.,1.,0.));
#202=DIRECTION('center_axis',(1.,0.,0.));
#203=DIRECTION('ref_axis',(0.,1.,0.));
#204=DIRECTION('center_axis',(-1.,0.,0.));
#205=DIRECTION('ref_axis',(0.,0.,1.));
#206=DIRECTION('center_axis',(1.,0.,0.));
#207=DIRECTION('ref_axis',(0.,1.,0.));
#208=DIRECTION('center_axis',(1.,0.,0.));
#209=DIRECTION('ref_axis',(0.,1.,0.));
#210=DIRECTION('center_axis',(1.,0.,0.));
#211=DIRECTION('ref_axis',(0.,1.,0.));
#212=DIRECTION('center_axis',(1.,0.,0.));
#213=DIRECTION('ref_axis',(0.,1.,0.));
#214=DIRECTION('center_axis',(1.,0.,0.));
#215=DIRECTION('ref_axis',(0.,1.,0.));
#216=DIRECTION('center_axis',(-1.,0.,0.));
#217=DIRECTION('ref_axis',(0.,1.,0.));
#218=DIRECTION('center_axis',(1.,0.,0.));
#219=DIRECTION('ref_axis',(0.,1.,0.));
#220=DIRECTION('center_axis',(1.,0.,0.));
#221=DIRECTION('ref_axis',(0.,1.,0.));
#222=DIRECTION('center_axis',(1.,0.,0.));
#223=DIRECTION('ref_axis',(0.,1.,0.));
#224=DIRECTION('center_axis',(-1.,0.,0.));
#225=DIRECTION('ref_axis',(0.,1.,0.));
#226=DIRECTION('center_axis',(1.,0.,0.));
#227=DIRECTION('ref_axis',(0.,1.,0.));
#228=DIRECTION('center_axis',(1.,0.,0.));
#229=DIRECTION('ref_axis',(0.,0.,-1.));
#230=DIRECTION('center_axis',(-1.,0.,0.));
#231=DIRECTION('ref_axis',(0.,0.,1.));
#232=DIRECTION('center_axis',(0.,-1.,0.));
#233=DIRECTION('ref_axis',(0.,0.,1.));
#234=DIRECTION('center_axis',(1.,0.,0.));
#235=DIRECTION('ref_axis',(0.,0.,1.));
#236=CARTESIAN_POINT('',(0.,0.,0.));
#237=CARTESIAN_POINT('Origin',(0.126993248190729,0.,-4.210944E-16));
#238=CARTESIAN_POINT('',(0.,13.5,1.653273E-15));
#239=CARTESIAN_POINT('Origin',(0.,0.,0.));
#240=CARTESIAN_POINT('',(0.253986496381458,13.7539864963815,-1.684378E-15));
#241=CARTESIAN_POINT('Origin',(0.253986496381458,0.,-8.421888E-16));
#242=CARTESIAN_POINT('Origin',(0.,6.85,0.));
#243=CARTESIAN_POINT('Origin',(1.1,0.,0.));
#244=CARTESIAN_POINT('',(2.2,14.1676244356741,0.));
#245=CARTESIAN_POINT('Origin',(2.2,0.,0.));
#246=CARTESIAN_POINT('Origin',(2.2,13.5706504527515,0.));
#247=CARTESIAN_POINT('',(2.2,12.973676469829,0.));
#248=CARTESIAN_POINT('Origin',(2.2,0.,0.));
#249=CARTESIAN_POINT('Origin',(3.5,0.,0.));
#250=CARTESIAN_POINT('',(4.8,13.526323530171,0.));
#251=CARTESIAN_POINT('Origin',(4.8,0.,0.));
#252=CARTESIAN_POINT('Origin',(4.8,14.1232975130936,0.));
#253=CARTESIAN_POINT('',(4.8,14.7202714960161,0.));
#254=CARTESIAN_POINT('Origin',(4.8,0.,0.));
#255=CARTESIAN_POINT('Origin',(7.81032462590023,0.,0.));
#256=CARTESIAN_POINT('',(10.8206492518005,16.,0.));
#257=CARTESIAN_POINT('Origin',(10.8206492518005,0.,0.));
#258=CARTESIAN_POINT('Origin',(11.1603246259002,0.,0.));
#259=CARTESIAN_POINT('',(11.5,16.,0.));
#260=CARTESIAN_POINT('Origin',(11.5,0.,0.));
#261=CARTESIAN_POINT('Origin',(12.5,0.,0.));
#262=CARTESIAN_POINT('',(13.5,14.,0.));
#263=CARTESIAN_POINT('Origin',(13.5,0.,0.));
#264=CARTESIAN_POINT('Origin',(19.0669872981078,0.,0.));
#265=CARTESIAN_POINT('',(24.6339745962156,14.,0.));
#266=CARTESIAN_POINT('Origin',(24.6339745962156,0.,0.));
#267=CARTESIAN_POINT('Origin',(25.0669872981078,0.,0.));
#268=CARTESIAN_POINT('',(25.5,12.5,0.));
#269=CARTESIAN_POINT('Origin',(25.5,0.,0.));
#270=CARTESIAN_POINT('Origin',(25.5,6.25,0.));
#271=CARTESIAN_POINT('Origin',(3.2,0.,0.));
#272=CARTESIAN_POINT('Origin',(3.2,0.,14.));
#273=CARTESIAN_POINT('Origin',(3.2,0.,0.));
#274=CARTESIAN_POINT('',(3.2,0.,15.));
#275=UNCERTAINTY_MEASURE_WITH_UNIT(LENGTH_MEASURE(0.01),#279,
'DISTANCE_ACCURACY_VALUE',
'Maximum model space distance between geometric entities at asserted c
onnectivities');
#276=UNCERTAINTY_MEASURE_WITH_UNIT(LENGTH_MEASURE(1.E-6),#279,
'DISTANCE_ACCURACY_VALUE',
'Maximum model space distance between geometric entities at asserted c
onnectivities');
#277=(
GEOMETRIC_REPRESENTATION_CONTEXT(3)
GLOBAL_UNCERTAINTY_ASSIGNED_CONTEXT((#275))
GLOBAL_UNIT_ASSIGNED_CONTEXT((#279,#282,#280))
REPRESENTATION_CONTEXT('','3D')
);
#278=(
GEOMETRIC_REPRESENTATION_CONTEXT(3)
GLOBAL_UNCERTAINTY_ASSIGNED_CONTEXT((#276))
GLOBAL_UNIT_ASSIGNED_CONTEXT((#279,#282,#280))
REPRESENTATION_CONTEXT('','3D')
);
#279=(
LENGTH_UNIT()
NAMED_UNIT(*)
SI_UNIT(.MILLI.,.METRE.)
);
#280=(
NAMED_UNIT(*)
SI_UNIT($,.STERADIAN.)
SOLID_ANGLE_UNIT()
);
#281=DIMENSIONAL_EXPONENTS(0.,0.,0.,0.,0.,0.,0.);
#282=(
CONVERSION_BASED_UNIT('degree',#284)
NAMED_UNIT(#281)
PLANE_ANGLE_UNIT()
);
#283=(
NAMED_UNIT(*)
PLANE_ANGLE_UNIT()
SI_UNIT($,.RADIAN.)
);
#284=PLANE_ANGLE_MEASURE_WITH_UNIT(PLANE_ANGLE_MEASURE(0.01745329252),#283);
#285=SHAPE_DEFINITION_REPRESENTATION(#286,#287);
#286=PRODUCT_DEFINITION_SHAPE('',$,#289);
#287=SHAPE_REPRESENTATION('',(#155),#277);
#288=PRODUCT_DEFINITION_CONTEXT('part definition',#293,'design');
#289=PRODUCT_DEFINITION('Assembly TN 324-28L','Assembly TN 324-28L',#290,
#288);
#290=PRODUCT_DEFINITION_FORMATION('',$,#295);
#291=PRODUCT_RELATED_PRODUCT_CATEGORY('Assembly TN 324-28L',
'Assembly TN 324-28L',(#295));
#292=APPLICATION_PROTOCOL_DEFINITION('international standard',
'automotive_design',2009,#293);
#293=APPLICATION_CONTEXT(
'Core Data for Automotive Mechanical Design Process');
#294=PRODUCT_CONTEXT('part definition',#293,'mechanical');
#295=PRODUCT('Assembly TN 324-28L','Assembly TN 324-28L',$,(#294));
#296=PRESENTATION_STYLE_ASSIGNMENT((#298));
#297=PRESENTATION_STYLE_ASSIGNMENT((#299));
#298=SURFACE_STYLE_USAGE(.BOTH.,#300);
#299=SURFACE_STYLE_USAGE(.BOTH.,#301);
#300=SURFACE_SIDE_STYLE($,(#302));
#301=SURFACE_SIDE_STYLE($,(#303));
#302=SURFACE_STYLE_FILL_AREA(#304);
#303=SURFACE_STYLE_FILL_AREA(#305);
#304=FILL_AREA_STYLE($,(#306));
#305=FILL_AREA_STYLE($,(#307));
#306=FILL_AREA_STYLE_COLOUR($,#308);
#307=FILL_AREA_STYLE_COLOUR($,#309);
#308=COLOUR_RGB('',0.749019607843137,0.749019607843137,0.749019607843137);
#309=COLOUR_RGB('',0.752941176470588,0.752941176470588,0.752941176470588);
ENDSEC;
END-ISO-10303-21;
