ISO-10303-21;
HEADER;
/* Generated by software containing ST-Developer
 * from STEP Tools, Inc. (www.steptools.com) 
 */
/* OPTION: using custom renumber hook */

FILE_DESCRIPTION(
/* description */ ('STEP AP214'),
/* implementation_level */ '2;1');

FILE_NAME(
/* name */ 'A0155070',
/* time_stamp */ '2023-04-20T14:54:28+02:00',
/* author */ ('License CC BY-ND 4.0'),
/* organization */ ('CADENAS'),
/* preprocessor_version */ 'ST-DEVELOPER v19.3',
/* originating_system */ 'PARTsolutions',
/* authorisation */ '  ');

FILE_SCHEMA (('AUTOMOTIVE_DESIGN {1 0 10303 214 3 1 1}'));
ENDSEC;

DATA;
#10=PROPERTY_DEFINITION_REPRESENTATION(#14,#12);
#11=PROPERTY_DEFINITION_REPRESENTATION(#15,#13);
#12=REPRESENTATION('',(#16),#477);
#13=REPRESENTATION('',(#17),#477);
#14=PROPERTY_DEFINITION('pmi validation property','',#482);
#15=PROPERTY_DEFINITION('pmi validation property','',#482);
#16=VALUE_REPRESENTATION_ITEM('number of annotations',COUNT_MEASURE(0.));
#17=VALUE_REPRESENTATION_ITEM('number of views',COUNT_MEASURE(0.));
#18=SHAPE_REPRESENTATION_RELATIONSHIP('','',#273,#19);
#19=ADVANCED_BREP_SHAPE_REPRESENTATION('',(#271),#477);
#20=CYLINDRICAL_SURFACE('',#292,8.);
#21=CYLINDRICAL_SURFACE('',#296,6.975);
#22=CYLINDRICAL_SURFACE('',#297,6.6);
#23=CYLINDRICAL_SURFACE('',#301,6.975);
#24=CYLINDRICAL_SURFACE('',#307,5.075);
#25=CYLINDRICAL_SURFACE('',#309,4.50000000000001);
#26=CYLINDRICAL_SURFACE('',#313,7.75);
#27=CYLINDRICAL_SURFACE('',#316,5.7);
#28=CONICAL_SURFACE('',#290,8.,0.785398163397452);
#29=CONICAL_SURFACE('',#294,6.975,0.785398163397443);
#30=CONICAL_SURFACE('',#299,6.975,1.13446401379632);
#31=CONICAL_SURFACE('',#303,6.675,0.785398163397448);
#32=CONICAL_SURFACE('',#304,1732.05080756889,1.0471975511966);
#33=CONICAL_SURFACE('',#310,5.6,0.5235987755983);
#34=CONICAL_SURFACE('',#311,7.75,0.785398163397447);
#35=CONICAL_SURFACE('',#314,5.7,0.78539816339745);
#36=CONICAL_SURFACE('',#318,6.825,1.39626340159547);
#37=ORIENTED_EDGE('',*,*,#81,.F.);
#38=ORIENTED_EDGE('',*,*,#82,.T.);
#39=ORIENTED_EDGE('',*,*,#83,.F.);
#40=ORIENTED_EDGE('',*,*,#84,.T.);
#41=ORIENTED_EDGE('',*,*,#85,.F.);
#42=ORIENTED_EDGE('',*,*,#86,.T.);
#43=ORIENTED_EDGE('',*,*,#87,.F.);
#44=ORIENTED_EDGE('',*,*,#88,.F.);
#45=ORIENTED_EDGE('',*,*,#89,.T.);
#46=ORIENTED_EDGE('',*,*,#90,.T.);
#47=ORIENTED_EDGE('',*,*,#91,.F.);
#48=ORIENTED_EDGE('',*,*,#87,.T.);
#49=ORIENTED_EDGE('',*,*,#92,.F.);
#50=ORIENTED_EDGE('',*,*,#91,.T.);
#51=ORIENTED_EDGE('',*,*,#92,.T.);
#52=ORIENTED_EDGE('',*,*,#93,.F.);
#53=ORIENTED_EDGE('',*,*,#86,.F.);
#54=ORIENTED_EDGE('',*,*,#93,.T.);
#55=ORIENTED_EDGE('',*,*,#94,.F.);
#56=ORIENTED_EDGE('',*,*,#85,.T.);
#57=ORIENTED_EDGE('',*,*,#95,.F.);
#58=ORIENTED_EDGE('',*,*,#94,.T.);
#59=ORIENTED_EDGE('',*,*,#96,.F.);
#60=ORIENTED_EDGE('',*,*,#95,.T.);
#61=ORIENTED_EDGE('',*,*,#96,.T.);
#62=ORIENTED_EDGE('',*,*,#89,.F.);
#63=ORIENTED_EDGE('',*,*,#97,.T.);
#64=ORIENTED_EDGE('',*,*,#98,.F.);
#65=ORIENTED_EDGE('',*,*,#99,.F.);
#66=ORIENTED_EDGE('',*,*,#97,.F.);
#67=ORIENTED_EDGE('',*,*,#98,.T.);
#68=ORIENTED_EDGE('',*,*,#90,.F.);
#69=ORIENTED_EDGE('',*,*,#84,.F.);
#70=ORIENTED_EDGE('',*,*,#99,.T.);
#71=ORIENTED_EDGE('',*,*,#100,.F.);
#72=ORIENTED_EDGE('',*,*,#83,.T.);
#73=ORIENTED_EDGE('',*,*,#82,.F.);
#74=ORIENTED_EDGE('',*,*,#100,.T.);
#75=ORIENTED_EDGE('',*,*,#81,.T.);
#76=ORIENTED_EDGE('',*,*,#101,.F.);
#77=ORIENTED_EDGE('',*,*,#102,.F.);
#78=ORIENTED_EDGE('',*,*,#101,.T.);
#79=ORIENTED_EDGE('',*,*,#88,.T.);
#80=ORIENTED_EDGE('',*,*,#102,.T.);
#81=EDGE_CURVE('',#103,#103,#125,.T.);
#82=EDGE_CURVE('',#104,#104,#126,.T.);
#83=EDGE_CURVE('',#105,#105,#127,.T.);
#84=EDGE_CURVE('',#106,#106,#128,.T.);
#85=EDGE_CURVE('',#107,#107,#129,.T.);
#86=EDGE_CURVE('',#108,#108,#130,.T.);
#87=EDGE_CURVE('',#109,#109,#131,.T.);
#88=EDGE_CURVE('',#110,#110,#132,.T.);
#89=EDGE_CURVE('',#111,#111,#133,.T.);
#90=EDGE_CURVE('',#112,#112,#134,.T.);
#91=EDGE_CURVE('',#113,#113,#135,.T.);
#92=EDGE_CURVE('',#114,#114,#136,.T.);
#93=EDGE_CURVE('',#115,#115,#137,.T.);
#94=EDGE_CURVE('',#116,#116,#138,.T.);
#95=EDGE_CURVE('',#117,#117,#139,.T.);
#96=EDGE_CURVE('',#118,#118,#140,.T.);
#97=EDGE_CURVE('',#119,#119,#141,.T.);
#98=EDGE_CURVE('',#120,#120,#142,.T.);
#99=EDGE_CURVE('',#121,#121,#143,.T.);
#100=EDGE_CURVE('',#122,#122,#144,.T.);
#101=EDGE_CURVE('',#123,#123,#145,.T.);
#102=EDGE_CURVE('',#124,#124,#146,.T.);
#103=VERTEX_POINT('',#412);
#104=VERTEX_POINT('',#414);
#105=VERTEX_POINT('',#417);
#106=VERTEX_POINT('',#419);
#107=VERTEX_POINT('',#422);
#108=VERTEX_POINT('',#424);
#109=VERTEX_POINT('',#427);
#110=VERTEX_POINT('',#429);
#111=VERTEX_POINT('',#432);
#112=VERTEX_POINT('',#434);
#113=VERTEX_POINT('',#437);
#114=VERTEX_POINT('',#440);
#115=VERTEX_POINT('',#443);
#116=VERTEX_POINT('',#447);
#117=VERTEX_POINT('',#450);
#118=VERTEX_POINT('',#453);
#119=VERTEX_POINT('',#457);
#120=VERTEX_POINT('',#459);
#121=VERTEX_POINT('',#462);
#122=VERTEX_POINT('',#467);
#123=VERTEX_POINT('',#471);
#124=VERTEX_POINT('',#474);
#125=CIRCLE('',#276,5.9);
#126=CIRCLE('',#277,7.75);
#127=CIRCLE('',#279,7.45);
#128=CIRCLE('',#280,5.6);
#129=CIRCLE('',#282,6.6);
#130=CIRCLE('',#283,6.975);
#131=CIRCLE('',#285,7.6);
#132=CIRCLE('',#286,6.825);
#133=CIRCLE('',#288,6.675);
#134=CIRCLE('',#289,4.50000000000001);
#135=CIRCLE('',#291,8.);
#136=CIRCLE('',#293,8.);
#137=CIRCLE('',#295,6.975);
#138=CIRCLE('',#298,6.6);
#139=CIRCLE('',#300,6.975);
#140=CIRCLE('',#302,6.975);
#141=CIRCLE('',#305,5.075);
#142=CIRCLE('',#306,4.50000000000001);
#143=CIRCLE('',#308,5.075);
#144=CIRCLE('',#312,7.75);
#145=CIRCLE('',#315,5.7);
#146=CIRCLE('',#317,5.7);
#147=EDGE_LOOP('',(#37));
#148=EDGE_LOOP('',(#38));
#149=EDGE_LOOP('',(#39));
#150=EDGE_LOOP('',(#40));
#151=EDGE_LOOP('',(#41));
#152=EDGE_LOOP('',(#42));
#153=EDGE_LOOP('',(#43));
#154=EDGE_LOOP('',(#44));
#155=EDGE_LOOP('',(#45));
#156=EDGE_LOOP('',(#46));
#157=EDGE_LOOP('',(#47));
#158=EDGE_LOOP('',(#48));
#159=EDGE_LOOP('',(#49));
#160=EDGE_LOOP('',(#50));
#161=EDGE_LOOP('',(#51));
#162=EDGE_LOOP('',(#52));
#163=EDGE_LOOP('',(#53));
#164=EDGE_LOOP('',(#54));
#165=EDGE_LOOP('',(#55));
#166=EDGE_LOOP('',(#56));
#167=EDGE_LOOP('',(#57));
#168=EDGE_LOOP('',(#58));
#169=EDGE_LOOP('',(#59));
#170=EDGE_LOOP('',(#60));
#171=EDGE_LOOP('',(#61));
#172=EDGE_LOOP('',(#62));
#173=EDGE_LOOP('',(#63));
#174=EDGE_LOOP('',(#64));
#175=EDGE_LOOP('',(#65));
#176=EDGE_LOOP('',(#66));
#177=EDGE_LOOP('',(#67));
#178=EDGE_LOOP('',(#68));
#179=EDGE_LOOP('',(#69));
#180=EDGE_LOOP('',(#70));
#181=EDGE_LOOP('',(#71));
#182=EDGE_LOOP('',(#72));
#183=EDGE_LOOP('',(#73));
#184=EDGE_LOOP('',(#74));
#185=EDGE_LOOP('',(#75));
#186=EDGE_LOOP('',(#76));
#187=EDGE_LOOP('',(#77));
#188=EDGE_LOOP('',(#78));
#189=EDGE_LOOP('',(#79));
#190=EDGE_LOOP('',(#80));
#191=FACE_BOUND('',#147,.T.);
#192=FACE_BOUND('',#148,.T.);
#193=FACE_BOUND('',#149,.T.);
#194=FACE_BOUND('',#150,.T.);
#195=FACE_BOUND('',#151,.T.);
#196=FACE_BOUND('',#152,.T.);
#197=FACE_BOUND('',#153,.T.);
#198=FACE_BOUND('',#154,.T.);
#199=FACE_BOUND('',#155,.T.);
#200=FACE_BOUND('',#156,.T.);
#201=FACE_BOUND('',#157,.T.);
#202=FACE_BOUND('',#158,.T.);
#203=FACE_BOUND('',#159,.T.);
#204=FACE_BOUND('',#160,.T.);
#205=FACE_BOUND('',#161,.T.);
#206=FACE_BOUND('',#162,.T.);
#207=FACE_BOUND('',#163,.T.);
#208=FACE_BOUND('',#164,.T.);
#209=FACE_BOUND('',#165,.T.);
#210=FACE_BOUND('',#166,.T.);
#211=FACE_BOUND('',#167,.T.);
#212=FACE_BOUND('',#168,.T.);
#213=FACE_BOUND('',#169,.T.);
#214=FACE_BOUND('',#170,.T.);
#215=FACE_BOUND('',#171,.T.);
#216=FACE_BOUND('',#172,.T.);
#217=FACE_BOUND('',#173,.T.);
#218=FACE_BOUND('',#174,.T.);
#219=FACE_BOUND('',#175,.T.);
#220=FACE_BOUND('',#176,.T.);
#221=FACE_BOUND('',#177,.T.);
#222=FACE_BOUND('',#178,.T.);
#223=FACE_BOUND('',#179,.T.);
#224=FACE_BOUND('',#180,.T.);
#225=FACE_BOUND('',#181,.T.);
#226=FACE_BOUND('',#182,.T.);
#227=FACE_BOUND('',#183,.T.);
#228=FACE_BOUND('',#184,.T.);
#229=FACE_BOUND('',#185,.T.);
#230=FACE_BOUND('',#186,.T.);
#231=FACE_BOUND('',#187,.T.);
#232=FACE_BOUND('',#188,.T.);
#233=FACE_BOUND('',#189,.T.);
#234=FACE_BOUND('',#190,.T.);
#235=PLANE('',#275);
#236=PLANE('',#278);
#237=PLANE('',#281);
#238=PLANE('',#284);
#239=PLANE('',#287);
#240=ADVANCED_FACE('',(#191,#192),#235,.T.);
#241=ADVANCED_FACE('',(#193,#194),#236,.T.);
#242=ADVANCED_FACE('',(#195,#196),#237,.T.);
#243=ADVANCED_FACE('',(#197,#198),#238,.T.);
#244=ADVANCED_FACE('',(#199,#200),#239,.T.);
#245=ADVANCED_FACE('',(#201,#202),#28,.T.);
#246=ADVANCED_FACE('',(#203,#204),#20,.T.);
#247=ADVANCED_FACE('',(#205,#206),#29,.T.);
#248=ADVANCED_FACE('',(#207,#208),#21,.T.);
#249=ADVANCED_FACE('',(#209,#210),#22,.T.);
#250=ADVANCED_FACE('',(#211,#212),#30,.T.);
#251=ADVANCED_FACE('',(#213,#214),#23,.T.);
#252=ADVANCED_FACE('',(#215,#216),#31,.T.);
#253=ADVANCED_FACE('',(#217,#218),#32,.F.);
#254=ADVANCED_FACE('',(#219,#220),#24,.F.);
#255=ADVANCED_FACE('',(#221,#222),#25,.F.);
#256=ADVANCED_FACE('',(#223,#224),#33,.F.);
#257=ADVANCED_FACE('',(#225,#226),#34,.T.);
#258=ADVANCED_FACE('',(#227,#228),#26,.T.);
#259=ADVANCED_FACE('',(#229,#230),#35,.T.);
#260=ADVANCED_FACE('',(#231,#232),#27,.T.);
#261=ADVANCED_FACE('',(#233,#234),#36,.T.);
#262=CLOSED_SHELL('',(#240,#241,#242,#243,#244,#245,#246,#247,#248,#249,
#250,#251,#252,#253,#254,#255,#256,#257,#258,#259,#260,#261));
#263=STYLED_ITEM('',(#264),#271);
#264=PRESENTATION_STYLE_ASSIGNMENT((#265));
#265=SURFACE_STYLE_USAGE(.BOTH.,#266);
#266=SURFACE_SIDE_STYLE('',(#267));
#267=SURFACE_STYLE_FILL_AREA(#268);
#268=FILL_AREA_STYLE('',(#269));
#269=FILL_AREA_STYLE_COLOUR('',#270);
#270=COLOUR_RGB('',0.752941176470588,0.752941176470588,0.752941176470588);
#271=MANIFOLD_SOLID_BREP('A0155070',#262);
#272=SHAPE_DEFINITION_REPRESENTATION(#482,#273);
#273=SHAPE_REPRESENTATION('A0155070',(#274),#477);
#274=AXIS2_PLACEMENT_3D('',#409,#319,#320);
#275=AXIS2_PLACEMENT_3D('',#410,#321,#322);
#276=AXIS2_PLACEMENT_3D('',#411,#323,#324);
#277=AXIS2_PLACEMENT_3D('',#413,#325,#326);
#278=AXIS2_PLACEMENT_3D('',#415,#327,#328);
#279=AXIS2_PLACEMENT_3D('',#416,#329,#330);
#280=AXIS2_PLACEMENT_3D('',#418,#331,#332);
#281=AXIS2_PLACEMENT_3D('',#420,#333,#334);
#282=AXIS2_PLACEMENT_3D('',#421,#335,#336);
#283=AXIS2_PLACEMENT_3D('',#423,#337,#338);
#284=AXIS2_PLACEMENT_3D('',#425,#339,#340);
#285=AXIS2_PLACEMENT_3D('',#426,#341,#342);
#286=AXIS2_PLACEMENT_3D('',#428,#343,#344);
#287=AXIS2_PLACEMENT_3D('',#430,#345,#346);
#288=AXIS2_PLACEMENT_3D('',#431,#347,#348);
#289=AXIS2_PLACEMENT_3D('',#433,#349,#350);
#290=AXIS2_PLACEMENT_3D('',#435,#351,#352);
#291=AXIS2_PLACEMENT_3D('',#436,#353,#354);
#292=AXIS2_PLACEMENT_3D('',#438,#355,#356);
#293=AXIS2_PLACEMENT_3D('',#439,#357,#358);
#294=AXIS2_PLACEMENT_3D('',#441,#359,#360);
#295=AXIS2_PLACEMENT_3D('',#442,#361,#362);
#296=AXIS2_PLACEMENT_3D('',#444,#363,#364);
#297=AXIS2_PLACEMENT_3D('',#445,#365,#366);
#298=AXIS2_PLACEMENT_3D('',#446,#367,#368);
#299=AXIS2_PLACEMENT_3D('',#448,#369,#370);
#300=AXIS2_PLACEMENT_3D('',#449,#371,#372);
#301=AXIS2_PLACEMENT_3D('',#451,#373,#374);
#302=AXIS2_PLACEMENT_3D('',#452,#375,#376);
#303=AXIS2_PLACEMENT_3D('',#454,#377,#378);
#304=AXIS2_PLACEMENT_3D('',#455,#379,#380);
#305=AXIS2_PLACEMENT_3D('',#456,#381,#382);
#306=AXIS2_PLACEMENT_3D('',#458,#383,#384);
#307=AXIS2_PLACEMENT_3D('',#460,#385,#386);
#308=AXIS2_PLACEMENT_3D('',#461,#387,#388);
#309=AXIS2_PLACEMENT_3D('',#463,#389,#390);
#310=AXIS2_PLACEMENT_3D('',#464,#391,#392);
#311=AXIS2_PLACEMENT_3D('',#465,#393,#394);
#312=AXIS2_PLACEMENT_3D('',#466,#395,#396);
#313=AXIS2_PLACEMENT_3D('',#468,#397,#398);
#314=AXIS2_PLACEMENT_3D('',#469,#399,#400);
#315=AXIS2_PLACEMENT_3D('',#470,#401,#402);
#316=AXIS2_PLACEMENT_3D('',#472,#403,#404);
#317=AXIS2_PLACEMENT_3D('',#473,#405,#406);
#318=AXIS2_PLACEMENT_3D('',#475,#407,#408);
#319=DIRECTION('',(0.,0.,1.));
#320=DIRECTION('',(1.,0.,0.));
#321=DIRECTION('',(0.,-1.,0.));
#322=DIRECTION('',(0.,0.,-1.));
#323=DIRECTION('',(0.,-1.,0.));
#324=DIRECTION('',(0.,0.,-1.));
#325=DIRECTION('',(0.,-1.,0.));
#326=DIRECTION('',(0.,0.,-1.));
#327=DIRECTION('',(0.,1.,0.));
#328=DIRECTION('',(0.,0.,1.));
#329=DIRECTION('',(0.,-1.,0.));
#330=DIRECTION('',(0.,0.,-1.));
#331=DIRECTION('',(0.,-1.,0.));
#332=DIRECTION('',(0.,0.,-1.));
#333=DIRECTION('',(0.,-1.,0.));
#334=DIRECTION('',(0.,0.,-1.));
#335=DIRECTION('',(0.,-1.,0.));
#336=DIRECTION('',(0.,0.,-1.));
#337=DIRECTION('',(0.,-1.,0.));
#338=DIRECTION('',(0.,0.,-1.));
#339=DIRECTION('',(0.,1.,0.));
#340=DIRECTION('',(0.,0.,1.));
#341=DIRECTION('',(0.,-1.,0.));
#342=DIRECTION('',(0.,0.,-1.));
#343=DIRECTION('',(0.,1.,0.));
#344=DIRECTION('',(0.,0.,1.));
#345=DIRECTION('',(0.,-1.,0.));
#346=DIRECTION('',(0.,0.,-1.));
#347=DIRECTION('',(0.,-1.,0.));
#348=DIRECTION('',(0.,0.,-1.));
#349=DIRECTION('',(0.,1.,0.));
#350=DIRECTION('',(0.,0.,1.));
#351=DIRECTION('',(0.,-1.,0.));
#352=DIRECTION('',(0.,0.,-1.));
#353=DIRECTION('',(0.,-1.,0.));
#354=DIRECTION('',(0.,0.,-1.));
#355=DIRECTION('',(0.,-1.,0.));
#356=DIRECTION('',(0.,0.,-1.));
#357=DIRECTION('',(0.,-1.,0.));
#358=DIRECTION('',(0.,0.,-1.));
#359=DIRECTION('',(0.,1.,0.));
#360=DIRECTION('',(0.,0.,1.));
#361=DIRECTION('',(0.,-1.,0.));
#362=DIRECTION('',(0.,0.,-1.));
#363=DIRECTION('',(0.,-1.,0.));
#364=DIRECTION('',(0.,0.,-1.));
#365=DIRECTION('',(0.,-1.,0.));
#366=DIRECTION('',(0.,0.,-1.));
#367=DIRECTION('',(0.,-1.,0.));
#368=DIRECTION('',(0.,0.,-1.));
#369=DIRECTION('',(0.,-1.,0.));
#370=DIRECTION('',(0.,0.,-1.));
#371=DIRECTION('',(0.,-1.,0.));
#372=DIRECTION('',(0.,0.,-1.));
#373=DIRECTION('',(0.,-1.,0.));
#374=DIRECTION('',(0.,0.,-1.));
#375=DIRECTION('',(0.,-1.,0.));
#376=DIRECTION('',(0.,0.,-1.));
#377=DIRECTION('',(0.,1.,0.));
#378=DIRECTION('',(0.,0.,1.));
#379=DIRECTION('',(-1.42736023244488E-16,1.,0.));
#380=DIRECTION('',(-1.,-1.2819751242557E-16,0.));
#381=DIRECTION('',(-1.42736023244488E-16,1.,0.));
#382=DIRECTION('',(-1.,0.,0.));
#383=DIRECTION('',(-1.42736023244488E-16,1.,0.));
#384=DIRECTION('',(-1.,0.,0.));
#385=DIRECTION('',(-1.42736023244488E-16,1.,0.));
#386=DIRECTION('',(-1.,0.,0.));
#387=DIRECTION('',(0.,-1.,0.));
#388=DIRECTION('',(0.,0.,-1.));
#389=DIRECTION('',(0.,1.,0.));
#390=DIRECTION('',(0.,0.,1.));
#391=DIRECTION('',(0.,1.,0.));
#392=DIRECTION('',(0.,0.,1.));
#393=DIRECTION('',(0.,-1.,0.));
#394=DIRECTION('',(0.,0.,-1.));
#395=DIRECTION('',(0.,-1.,0.));
#396=DIRECTION('',(0.,0.,-1.));
#397=DIRECTION('',(0.,-1.,0.));
#398=DIRECTION('',(0.,0.,-1.));
#399=DIRECTION('',(0.,1.,0.));
#400=DIRECTION('',(0.,0.,1.));
#401=DIRECTION('',(0.,-1.,0.));
#402=DIRECTION('',(0.,0.,-1.));
#403=DIRECTION('',(0.,-1.,0.));
#404=DIRECTION('',(0.,0.,-1.));
#405=DIRECTION('',(0.,-1.,0.));
#406=DIRECTION('',(0.,0.,-1.));
#407=DIRECTION('',(0.,-1.,0.));
#408=DIRECTION('',(0.,0.,-1.));
#409=CARTESIAN_POINT('',(0.,0.,0.));
#410=CARTESIAN_POINT('',(5.9,40.6,0.));
#411=CARTESIAN_POINT('',(6.00994431926409E-16,40.6,0.));
#412=CARTESIAN_POINT('',(6.00994431926409E-16,40.6,-5.9));
#413=CARTESIAN_POINT('',(6.00994431926409E-16,40.6,0.));
#414=CARTESIAN_POINT('',(6.00994431926409E-16,40.6,-7.75));
#415=CARTESIAN_POINT('',(7.45,41.8,0.));
#416=CARTESIAN_POINT('',(6.00994431926409E-16,41.8,0.));
#417=CARTESIAN_POINT('',(6.00994431926409E-16,41.8,-7.45));
#418=CARTESIAN_POINT('',(6.00994431926409E-16,41.8,0.));
#419=CARTESIAN_POINT('',(6.00994431926409E-16,41.8,-5.6));
#420=CARTESIAN_POINT('',(6.975,9.27486537180812,0.));
#421=CARTESIAN_POINT('',(0.,9.27486537180812,0.));
#422=CARTESIAN_POINT('',(0.,9.27486537180812,-6.6));
#423=CARTESIAN_POINT('',(0.,9.27486537180812,0.));
#424=CARTESIAN_POINT('',(0.,9.27486537180812,-6.975));
#425=CARTESIAN_POINT('',(0.,39.,0.));
#426=CARTESIAN_POINT('',(0.,39.,0.));
#427=CARTESIAN_POINT('',(0.,39.,-7.6));
#428=CARTESIAN_POINT('',(6.00994431926409E-16,39.,0.));
#429=CARTESIAN_POINT('',(6.00994431926409E-16,39.,6.825));
#430=CARTESIAN_POINT('',(6.675,6.12323399573677E-17,0.));
#431=CARTESIAN_POINT('',(0.,1.22464679914735E-16,0.));
#432=CARTESIAN_POINT('',(0.,1.22464679914735E-16,-6.675));
#433=CARTESIAN_POINT('',(-3.95378784387231E-15,0.,0.));
#434=CARTESIAN_POINT('',(-3.95378784387231E-15,0.,4.50000000000001));
#435=CARTESIAN_POINT('',(0.,38.6,0.));
#436=CARTESIAN_POINT('',(0.,38.6,0.));
#437=CARTESIAN_POINT('',(0.,38.6,-8.));
#438=CARTESIAN_POINT('',(0.,0.,0.));
#439=CARTESIAN_POINT('',(0.,26.025,0.));
#440=CARTESIAN_POINT('',(0.,26.025,-8.));
#441=CARTESIAN_POINT('',(0.,25.,0.));
#442=CARTESIAN_POINT('',(0.,25.,0.));
#443=CARTESIAN_POINT('',(0.,25.,-6.975));
#444=CARTESIAN_POINT('',(0.,0.,0.));
#445=CARTESIAN_POINT('',(0.,0.,0.));
#446=CARTESIAN_POINT('',(0.,8.47486537180812,0.));
#447=CARTESIAN_POINT('',(0.,8.47486537180812,-6.6));
#448=CARTESIAN_POINT('',(0.,8.3,0.));
#449=CARTESIAN_POINT('',(0.,8.3,0.));
#450=CARTESIAN_POINT('',(0.,8.3,-6.975));
#451=CARTESIAN_POINT('',(0.,0.,0.));
#452=CARTESIAN_POINT('',(0.,0.3,0.));
#453=CARTESIAN_POINT('',(0.,0.3,-6.975));
#454=CARTESIAN_POINT('',(0.,1.22464679914735E-16,0.));
#455=CARTESIAN_POINT('',(-1.40133938030522E-13,1020.76994738386,0.));
#456=CARTESIAN_POINT('',(2.18386115564066E-15,23.7,0.));
#457=CARTESIAN_POINT('',(-5.075,23.7,0.));
#458=CARTESIAN_POINT('',(2.23124614747054E-15,23.368023595216,0.));
#459=CARTESIAN_POINT('',(-4.50000000000001,23.368023595216,0.));
#460=CARTESIAN_POINT('',(0.,39.,0.));
#461=CARTESIAN_POINT('',(6.00994431926409E-16,40.8906733260263,0.));
#462=CARTESIAN_POINT('',(6.00994431926409E-16,40.8906733260263,-5.075));
#463=CARTESIAN_POINT('',(-3.95378784387231E-15,27.7,0.));
#464=CARTESIAN_POINT('',(6.00994431926409E-16,41.8,0.));
#465=CARTESIAN_POINT('',(6.00994431926409E-16,41.5,0.));
#466=CARTESIAN_POINT('',(6.00994431926409E-16,41.5,0.));
#467=CARTESIAN_POINT('',(6.00994431926409E-16,41.5,-7.75));
#468=CARTESIAN_POINT('',(6.00994431926409E-16,33.1,0.));
#469=CARTESIAN_POINT('',(6.00994431926409E-16,40.4,0.));
#470=CARTESIAN_POINT('',(6.00994431926409E-16,40.4,0.));
#471=CARTESIAN_POINT('',(6.00994431926409E-16,40.4,-5.7));
#472=CARTESIAN_POINT('',(6.00994431926409E-16,33.1,0.));
#473=CARTESIAN_POINT('',(6.00994431926409E-16,39.198367853297,0.));
#474=CARTESIAN_POINT('',(6.00994431926409E-16,39.198367853297,-5.7));
#475=CARTESIAN_POINT('',(6.00994431926409E-16,39.,0.));
#476=MECHANICAL_DESIGN_GEOMETRIC_PRESENTATION_REPRESENTATION('',(#263),
#477);
#477=(
GEOMETRIC_REPRESENTATION_CONTEXT(3)
GLOBAL_UNCERTAINTY_ASSIGNED_CONTEXT((#478))
GLOBAL_UNIT_ASSIGNED_CONTEXT((#481,#480,#479))
REPRESENTATION_CONTEXT('A0155070','TOP_LEVEL_ASSEMBLY_PART')
);
#478=UNCERTAINTY_MEASURE_WITH_UNIT(LENGTH_MEASURE(0.005),#481,
'DISTANCE_ACCURACY_VALUE','Maximum Tolerance applied to model');
#479=(
NAMED_UNIT(*)
SI_UNIT($,.STERADIAN.)
SOLID_ANGLE_UNIT()
);
#480=(
NAMED_UNIT(*)
PLANE_ANGLE_UNIT()
SI_UNIT($,.RADIAN.)
);
#481=(
LENGTH_UNIT()
NAMED_UNIT(*)
SI_UNIT(.MILLI.,.METRE.)
);
#482=PRODUCT_DEFINITION_SHAPE('','',#483);
#483=PRODUCT_DEFINITION('','',#485,#484);
#484=PRODUCT_DEFINITION_CONTEXT('',#491,'design');
#485=PRODUCT_DEFINITION_FORMATION_WITH_SPECIFIED_SOURCE('','',#487,
 .NOT_KNOWN.);
#486=PRODUCT_RELATED_PRODUCT_CATEGORY('','',(#487));
#487=PRODUCT('A0155070','A0155070','A0155070',(#489));
#488=PRODUCT_CATEGORY('','');
#489=PRODUCT_CONTEXT('',#491,'mechanical');
#490=APPLICATION_PROTOCOL_DEFINITION('international standard',
'automotive_design',2010,#491);
#491=APPLICATION_CONTEXT(
'core data for automotive mechanical design processes');
ENDSEC;
END-ISO-10303-21;
