ISO-10303-21;
HEADER;
/* Generated by software containing ST-Developer
 * from STEP Tools, Inc. (www.steptools.com) 
 */

FILE_DESCRIPTION(
/* description */ (''),
/* implementation_level */ '2;1');

FILE_NAME(
/* name */ 'H:\\cad\\neutral\\3d\\73328\\sd_12.stp',
/* time_stamp */ '2017-08-07T09:42:03+02:00',
/* author */ ('Hamoud'),
/* organization */ (''),
/* preprocessor_version */ 'ST-DEVELOPER v15.6',
/* originating_system */ 'Autodesk Inventor LT ',
/* authorisation */ '');

FILE_SCHEMA (('AUTOMOTIVE_DESIGN { 1 0 10303 214 3 1 1 }'));
ENDSEC;

DATA;
#10=MECHANICAL_DESIGN_GEOMETRIC_PRESENTATION_REPRESENTATION('',(#13),#315);
#11=SHAPE_REPRESENTATION_RELATIONSHIP('SRR','None',#324,#12);
#12=ADVANCED_BREP_SHAPE_REPRESENTATION($,(#14),#314);
#13=STYLED_ITEM('',(#333),#14);
#14=MANIFOLD_SOLID_BREP('Volumenk\X\F6rper1',#176);
#15=LINE('',#275,#19);
#16=LINE('',#280,#20);
#17=LINE('',#288,#21);
#18=LINE('',#293,#22);
#19=VECTOR('',#220,19.3514686482183);
#20=VECTOR('',#221,18.8944436276912);
#21=VECTOR('',#224,19.3514686482183);
#22=VECTOR('',#225,18.8944436276912);
#23=(
BOUNDED_CURVE()
B_SPLINE_CURVE(2,(#271,#272,#273),.UNSPECIFIED.,.F.,.F.)
B_SPLINE_CURVE_WITH_KNOTS((3,3),(0.,0.300869040739721),.UNSPECIFIED.)
CURVE()
GEOMETRIC_REPRESENTATION_ITEM()
RATIONAL_B_SPLINE_CURVE((1.,1.00007062951934,1.))
REPRESENTATION_ITEM('')
);
#24=(
BOUNDED_CURVE()
B_SPLINE_CURVE(2,(#277,#278,#279),.UNSPECIFIED.,.F.,.F.)
B_SPLINE_CURVE_WITH_KNOTS((3,3),(0.,0.300869040739721),.UNSPECIFIED.)
CURVE()
GEOMETRIC_REPRESENTATION_ITEM()
RATIONAL_B_SPLINE_CURVE((1.,1.00007062951934,1.))
REPRESENTATION_ITEM('')
);
#25=(
BOUNDED_CURVE()
B_SPLINE_CURVE(2,(#284,#285,#286),.UNSPECIFIED.,.F.,.F.)
B_SPLINE_CURVE_WITH_KNOTS((3,3),(0.,0.300869040739721),.UNSPECIFIED.)
CURVE()
GEOMETRIC_REPRESENTATION_ITEM()
RATIONAL_B_SPLINE_CURVE((1.,1.00007062946383,1.))
REPRESENTATION_ITEM('')
);
#26=(
BOUNDED_CURVE()
B_SPLINE_CURVE(2,(#290,#291,#292),.UNSPECIFIED.,.F.,.F.)
B_SPLINE_CURVE_WITH_KNOTS((3,3),(0.,0.300869040739721),.UNSPECIFIED.)
CURVE()
GEOMETRIC_REPRESENTATION_ITEM()
RATIONAL_B_SPLINE_CURVE((1.,1.00007062946383,1.))
REPRESENTATION_ITEM('')
);
#27=CYLINDRICAL_SURFACE('',#183,10.5);
#28=CYLINDRICAL_SURFACE('',#201,5.5);
#29=PLANE('',#181);
#30=PLANE('',#185);
#31=PLANE('',#186);
#32=PLANE('',#187);
#33=PLANE('',#189);
#34=PLANE('',#191);
#35=PLANE('',#196);
#36=PLANE('',#197);
#37=FACE_BOUND('',#58,.T.);
#38=FACE_BOUND('',#60,.T.);
#39=FACE_BOUND('',#62,.T.);
#40=FACE_BOUND('',#68,.T.);
#41=FACE_BOUND('',#70,.T.);
#42=FACE_BOUND('',#74,.T.);
#43=FACE_BOUND('',#76,.T.);
#44=FACE_OUTER_BOUND('',#57,.T.);
#45=FACE_OUTER_BOUND('',#59,.T.);
#46=FACE_OUTER_BOUND('',#61,.T.);
#47=FACE_OUTER_BOUND('',#63,.T.);
#48=FACE_OUTER_BOUND('',#64,.T.);
#49=FACE_OUTER_BOUND('',#65,.T.);
#50=FACE_OUTER_BOUND('',#66,.T.);
#51=FACE_OUTER_BOUND('',#67,.T.);
#52=FACE_OUTER_BOUND('',#69,.T.);
#53=FACE_OUTER_BOUND('',#71,.T.);
#54=FACE_OUTER_BOUND('',#72,.T.);
#55=FACE_OUTER_BOUND('',#73,.T.);
#56=FACE_OUTER_BOUND('',#75,.T.);
#57=EDGE_LOOP('',(#122));
#58=EDGE_LOOP('',(#123));
#59=EDGE_LOOP('',(#124));
#60=EDGE_LOOP('',(#125));
#61=EDGE_LOOP('',(#126));
#62=EDGE_LOOP('',(#127));
#63=EDGE_LOOP('',(#128,#129,#130,#131));
#64=EDGE_LOOP('',(#132,#133,#134,#135));
#65=EDGE_LOOP('',(#136,#137));
#66=EDGE_LOOP('',(#138,#139));
#67=EDGE_LOOP('',(#140));
#68=EDGE_LOOP('',(#141));
#69=EDGE_LOOP('',(#142,#143,#144,#145,#146,#147,#148,#149));
#70=EDGE_LOOP('',(#150));
#71=EDGE_LOOP('',(#151,#152,#153,#154));
#72=EDGE_LOOP('',(#155));
#73=EDGE_LOOP('',(#156));
#74=EDGE_LOOP('',(#157));
#75=EDGE_LOOP('',(#158));
#76=EDGE_LOOP('',(#159));
#77=CIRCLE('',#179,10.);
#78=CIRCLE('',#180,10.5);
#79=CIRCLE('',#182,5.5);
#80=CIRCLE('',#184,10.5);
#81=CIRCLE('',#188,9.5);
#82=CIRCLE('',#190,9.5);
#83=CIRCLE('',#192,12.);
#84=CIRCLE('',#194,9.72727272727273);
#85=CIRCLE('',#195,9.72727272727273);
#86=CIRCLE('',#198,4.);
#87=CIRCLE('',#200,5.5);
#88=VERTEX_POINT('',#258);
#89=VERTEX_POINT('',#260);
#90=VERTEX_POINT('',#263);
#91=VERTEX_POINT('',#266);
#92=VERTEX_POINT('',#269);
#93=VERTEX_POINT('',#270);
#94=VERTEX_POINT('',#274);
#95=VERTEX_POINT('',#276);
#96=VERTEX_POINT('',#282);
#97=VERTEX_POINT('',#283);
#98=VERTEX_POINT('',#287);
#99=VERTEX_POINT('',#289);
#100=VERTEX_POINT('',#299);
#101=VERTEX_POINT('',#306);
#102=VERTEX_POINT('',#309);
#103=EDGE_CURVE('',#88,#88,#77,.T.);
#104=EDGE_CURVE('',#89,#89,#78,.T.);
#105=EDGE_CURVE('',#90,#90,#79,.T.);
#106=EDGE_CURVE('',#91,#91,#80,.T.);
#107=EDGE_CURVE('',#92,#93,#23,.T.);
#108=EDGE_CURVE('',#94,#92,#15,.T.);
#109=EDGE_CURVE('',#95,#94,#24,.T.);
#110=EDGE_CURVE('',#93,#95,#16,.T.);
#111=EDGE_CURVE('',#96,#97,#25,.T.);
#112=EDGE_CURVE('',#96,#98,#17,.T.);
#113=EDGE_CURVE('',#99,#98,#26,.T.);
#114=EDGE_CURVE('',#97,#99,#18,.T.);
#115=EDGE_CURVE('',#95,#93,#81,.T.);
#116=EDGE_CURVE('',#99,#97,#82,.T.);
#117=EDGE_CURVE('',#100,#100,#83,.T.);
#118=EDGE_CURVE('',#98,#92,#84,.T.);
#119=EDGE_CURVE('',#94,#96,#85,.T.);
#120=EDGE_CURVE('',#101,#101,#86,.T.);
#121=EDGE_CURVE('',#102,#102,#87,.T.);
#122=ORIENTED_EDGE('',*,*,#103,.T.);
#123=ORIENTED_EDGE('',*,*,#104,.T.);
#124=ORIENTED_EDGE('',*,*,#103,.F.);
#125=ORIENTED_EDGE('',*,*,#105,.T.);
#126=ORIENTED_EDGE('',*,*,#106,.F.);
#127=ORIENTED_EDGE('',*,*,#104,.F.);
#128=ORIENTED_EDGE('',*,*,#107,.F.);
#129=ORIENTED_EDGE('',*,*,#108,.F.);
#130=ORIENTED_EDGE('',*,*,#109,.F.);
#131=ORIENTED_EDGE('',*,*,#110,.F.);
#132=ORIENTED_EDGE('',*,*,#111,.F.);
#133=ORIENTED_EDGE('',*,*,#112,.T.);
#134=ORIENTED_EDGE('',*,*,#113,.F.);
#135=ORIENTED_EDGE('',*,*,#114,.F.);
#136=ORIENTED_EDGE('',*,*,#110,.T.);
#137=ORIENTED_EDGE('',*,*,#115,.T.);
#138=ORIENTED_EDGE('',*,*,#114,.T.);
#139=ORIENTED_EDGE('',*,*,#116,.T.);
#140=ORIENTED_EDGE('',*,*,#117,.F.);
#141=ORIENTED_EDGE('',*,*,#106,.T.);
#142=ORIENTED_EDGE('',*,*,#111,.T.);
#143=ORIENTED_EDGE('',*,*,#116,.F.);
#144=ORIENTED_EDGE('',*,*,#113,.T.);
#145=ORIENTED_EDGE('',*,*,#118,.T.);
#146=ORIENTED_EDGE('',*,*,#107,.T.);
#147=ORIENTED_EDGE('',*,*,#115,.F.);
#148=ORIENTED_EDGE('',*,*,#109,.T.);
#149=ORIENTED_EDGE('',*,*,#119,.T.);
#150=ORIENTED_EDGE('',*,*,#117,.T.);
#151=ORIENTED_EDGE('',*,*,#108,.T.);
#152=ORIENTED_EDGE('',*,*,#118,.F.);
#153=ORIENTED_EDGE('',*,*,#112,.F.);
#154=ORIENTED_EDGE('',*,*,#119,.F.);
#155=ORIENTED_EDGE('',*,*,#120,.F.);
#156=ORIENTED_EDGE('',*,*,#121,.F.);
#157=ORIENTED_EDGE('',*,*,#120,.T.);
#158=ORIENTED_EDGE('',*,*,#105,.F.);
#159=ORIENTED_EDGE('',*,*,#121,.T.);
#160=CONICAL_SURFACE('',#178,10.25,45.0000000000001);
#161=CONICAL_SURFACE('',#193,10.75,4.33231398318852);
#162=CONICAL_SURFACE('',#199,4.75,3.301865674435);
#163=ADVANCED_FACE('',(#44,#37),#160,.T.);
#164=ADVANCED_FACE('',(#45,#38),#29,.T.);
#165=ADVANCED_FACE('',(#46,#39),#27,.T.);
#166=ADVANCED_FACE('',(#47),#30,.F.);
#167=ADVANCED_FACE('',(#48),#31,.F.);
#168=ADVANCED_FACE('',(#49),#32,.T.);
#169=ADVANCED_FACE('',(#50),#33,.T.);
#170=ADVANCED_FACE('',(#51,#40),#34,.T.);
#171=ADVANCED_FACE('',(#52,#41),#161,.T.);
#172=ADVANCED_FACE('',(#53),#35,.T.);
#173=ADVANCED_FACE('',(#54),#36,.T.);
#174=ADVANCED_FACE('',(#55,#42),#162,.F.);
#175=ADVANCED_FACE('',(#56,#43),#28,.F.);
#176=CLOSED_SHELL('',(#163,#164,#165,#166,#167,#168,#169,#170,#171,#172,
#173,#174,#175));
#177=AXIS2_PLACEMENT_3D('placement',#256,#202,#203);
#178=AXIS2_PLACEMENT_3D('',#257,#204,#205);
#179=AXIS2_PLACEMENT_3D('',#259,#206,#207);
#180=AXIS2_PLACEMENT_3D('',#261,#208,#209);
#181=AXIS2_PLACEMENT_3D('',#262,#210,#211);
#182=AXIS2_PLACEMENT_3D('',#264,#212,#213);
#183=AXIS2_PLACEMENT_3D('',#265,#214,#215);
#184=AXIS2_PLACEMENT_3D('',#267,#216,#217);
#185=AXIS2_PLACEMENT_3D('',#268,#218,#219);
#186=AXIS2_PLACEMENT_3D('',#281,#222,#223);
#187=AXIS2_PLACEMENT_3D('',#294,#226,#227);
#188=AXIS2_PLACEMENT_3D('',#295,#228,#229);
#189=AXIS2_PLACEMENT_3D('',#296,#230,#231);
#190=AXIS2_PLACEMENT_3D('',#297,#232,#233);
#191=AXIS2_PLACEMENT_3D('',#298,#234,#235);
#192=AXIS2_PLACEMENT_3D('',#300,#236,#237);
#193=AXIS2_PLACEMENT_3D('',#301,#238,#239);
#194=AXIS2_PLACEMENT_3D('',#302,#240,#241);
#195=AXIS2_PLACEMENT_3D('',#303,#242,#243);
#196=AXIS2_PLACEMENT_3D('',#304,#244,#245);
#197=AXIS2_PLACEMENT_3D('',#305,#246,#247);
#198=AXIS2_PLACEMENT_3D('',#307,#248,#249);
#199=AXIS2_PLACEMENT_3D('',#308,#250,#251);
#200=AXIS2_PLACEMENT_3D('',#310,#252,#253);
#201=AXIS2_PLACEMENT_3D('',#311,#254,#255);
#202=DIRECTION('axis',(0.,0.,1.));
#203=DIRECTION('refdir',(1.,0.,0.));
#204=DIRECTION('center_axis',(0.,1.,0.));
#205=DIRECTION('ref_axis',(0.,0.,-1.));
#206=DIRECTION('center_axis',(0.,1.,0.));
#207=DIRECTION('ref_axis',(0.,0.,-1.));
#208=DIRECTION('center_axis',(0.,-1.,0.));
#209=DIRECTION('ref_axis',(0.,0.,-1.));
#210=DIRECTION('center_axis',(0.,-1.,0.));
#211=DIRECTION('ref_axis',(0.,0.,-1.));
#212=DIRECTION('center_axis',(0.,1.,0.));
#213=DIRECTION('ref_axis',(1.,0.,0.));
#214=DIRECTION('center_axis',(0.,1.,0.));
#215=DIRECTION('ref_axis',(0.,0.,1.));
#216=DIRECTION('center_axis',(0.,1.,0.));
#217=DIRECTION('ref_axis',(1.,0.,0.));
#218=DIRECTION('center_axis',(1.,9.25185853854298E-17,0.));
#219=DIRECTION('ref_axis',(-8.88178419700125E-17,1.,0.));
#220=DIRECTION('',(0.,0.,-1.));
#221=DIRECTION('',(0.,0.,1.));
#222=DIRECTION('center_axis',(-1.,-1.8503717077086E-16,0.));
#223=DIRECTION('ref_axis',(1.77635683940025E-16,-1.,0.));
#224=DIRECTION('',(0.,0.,-1.));
#225=DIRECTION('',(0.,0.,-1.));
#226=DIRECTION('center_axis',(0.,1.,0.));
#227=DIRECTION('ref_axis',(0.,0.,1.));
#228=DIRECTION('center_axis',(0.,1.,0.));
#229=DIRECTION('ref_axis',(1.,0.,0.));
#230=DIRECTION('center_axis',(0.,1.,0.));
#231=DIRECTION('ref_axis',(0.,0.,1.));
#232=DIRECTION('center_axis',(0.,1.,0.));
#233=DIRECTION('ref_axis',(1.,0.,0.));
#234=DIRECTION('center_axis',(0.,-1.,0.));
#235=DIRECTION('ref_axis',(0.,0.,-1.));
#236=DIRECTION('center_axis',(0.,1.,0.));
#237=DIRECTION('ref_axis',(1.,0.,0.));
#238=DIRECTION('center_axis',(0.,-1.,0.));
#239=DIRECTION('ref_axis',(0.,0.,1.));
#240=DIRECTION('center_axis',(0.,-1.,0.));
#241=DIRECTION('ref_axis',(0.,0.,1.));
#242=DIRECTION('center_axis',(0.,-1.,0.));
#243=DIRECTION('ref_axis',(0.,0.,1.));
#244=DIRECTION('center_axis',(0.,1.,0.));
#245=DIRECTION('ref_axis',(0.,0.,1.));
#246=DIRECTION('center_axis',(0.,-1.,0.));
#247=DIRECTION('ref_axis',(0.,0.,-1.));
#248=DIRECTION('center_axis',(0.,1.,0.));
#249=DIRECTION('ref_axis',(1.,0.,0.));
#250=DIRECTION('center_axis',(0.,-1.,0.));
#251=DIRECTION('ref_axis',(0.,0.,1.));
#252=DIRECTION('center_axis',(0.,1.,0.));
#253=DIRECTION('ref_axis',(1.,0.,0.));
#254=DIRECTION('center_axis',(0.,1.,0.));
#255=DIRECTION('ref_axis',(0.,0.,1.));
#256=CARTESIAN_POINT('',(0.,0.,0.));
#257=CARTESIAN_POINT('Origin',(0.,0.249999999999999,0.));
#258=CARTESIAN_POINT('',(1.22464679914735E-15,-5.55111512312578E-16,10.));
#259=CARTESIAN_POINT('Origin',(0.,-5.55111512312578E-16,0.));
#260=CARTESIAN_POINT('',(-1.28587913910472E-15,0.499999999999999,10.5));
#261=CARTESIAN_POINT('Origin',(0.,0.499999999999999,0.));
#262=CARTESIAN_POINT('Origin',(0.,-5.79624703142881E-16,10.5));
#263=CARTESIAN_POINT('',(0.,0.,5.5));
#264=CARTESIAN_POINT('Origin',(0.,0.,0.));
#265=CARTESIAN_POINT('Origin',(0.,5.5,0.));
#266=CARTESIAN_POINT('',(0.,11.,10.5));
#267=CARTESIAN_POINT('Origin',(0.,11.,0.));
#268=CARTESIAN_POINT('Origin',(1.,41.,0.));
#269=CARTESIAN_POINT('',(1.,41.,-9.67573432410914));
#270=CARTESIAN_POINT('',(1.,44.,-9.44722181384559));
#271=CARTESIAN_POINT('Ctrl Pts',(1.,41.,-9.67573432410914));
#272=CARTESIAN_POINT('Ctrl Pts',(1.,42.5179243317715,-9.56012753240403));
#273=CARTESIAN_POINT('Ctrl Pts',(1.,44.,-9.44722181384559));
#274=CARTESIAN_POINT('',(1.,41.,9.67573432410914));
#275=CARTESIAN_POINT('',(1.,41.,0.));
#276=CARTESIAN_POINT('',(1.,44.,9.44722181384559));
#277=CARTESIAN_POINT('Ctrl Pts',(1.,44.,9.44722181384559));
#278=CARTESIAN_POINT('Ctrl Pts',(1.,42.5179243317715,9.56012753240403));
#279=CARTESIAN_POINT('Ctrl Pts',(1.,41.,9.67573432410914));
#280=CARTESIAN_POINT('',(1.,44.,0.500000000000002));
#281=CARTESIAN_POINT('Origin',(-1.00000000000001,44.,0.));
#282=CARTESIAN_POINT('',(-1.00000000000001,41.,9.67573432410914));
#283=CARTESIAN_POINT('',(-1.00000000000001,44.,9.44722181384559));
#284=CARTESIAN_POINT('Ctrl Pts',(-1.00000000000001,41.,9.67573432410914));
#285=CARTESIAN_POINT('Ctrl Pts',(-1.00000000000001,42.5179243317715,9.56012753240403));
#286=CARTESIAN_POINT('Ctrl Pts',(-1.00000000000001,44.,9.44722181384559));
#287=CARTESIAN_POINT('',(-1.00000000000001,41.,-9.67573432410914));
#288=CARTESIAN_POINT('',(-1.00000000000001,41.,0.));
#289=CARTESIAN_POINT('',(-1.00000000000001,44.,-9.44722181384559));
#290=CARTESIAN_POINT('Ctrl Pts',(-1.00000000000001,44.,-9.44722181384559));
#291=CARTESIAN_POINT('Ctrl Pts',(-1.00000000000001,42.5179243317715,-9.56012753240403));
#292=CARTESIAN_POINT('Ctrl Pts',(-1.00000000000001,41.,-9.67573432410914));
#293=CARTESIAN_POINT('',(-1.00000000000001,44.,0.500000000000002));
#294=CARTESIAN_POINT('Origin',(0.,44.,1.));
#295=CARTESIAN_POINT('Origin',(0.,44.,0.));
#296=CARTESIAN_POINT('Origin',(0.,44.,1.));
#297=CARTESIAN_POINT('Origin',(0.,44.,0.));
#298=CARTESIAN_POINT('Origin',(0.,11.,12.));
#299=CARTESIAN_POINT('',(0.,11.,12.));
#300=CARTESIAN_POINT('Origin',(0.,11.,0.));
#301=CARTESIAN_POINT('Origin',(0.,27.5,0.));
#302=CARTESIAN_POINT('Origin',(0.,41.,0.));
#303=CARTESIAN_POINT('Origin',(0.,41.,0.));
#304=CARTESIAN_POINT('Origin',(0.,41.,0.));
#305=CARTESIAN_POINT('Origin',(0.,37.,4.));
#306=CARTESIAN_POINT('',(0.,37.,4.));
#307=CARTESIAN_POINT('Origin',(0.,37.,0.));
#308=CARTESIAN_POINT('Origin',(0.,24.,0.));
#309=CARTESIAN_POINT('',(0.,11.,5.5));
#310=CARTESIAN_POINT('Origin',(0.,11.,0.));
#311=CARTESIAN_POINT('Origin',(0.,5.5,0.));
#312=UNCERTAINTY_MEASURE_WITH_UNIT(LENGTH_MEASURE(0.01),#316,
'DISTANCE_ACCURACY_VALUE',
'Maximum model space distance between geometric entities at asserted c
onnectivities');
#313=UNCERTAINTY_MEASURE_WITH_UNIT(LENGTH_MEASURE(1.E-6),#316,
'DISTANCE_ACCURACY_VALUE',
'Maximum model space distance between geometric entities at asserted c
onnectivities');
#314=(
GEOMETRIC_REPRESENTATION_CONTEXT(3)
GLOBAL_UNCERTAINTY_ASSIGNED_CONTEXT((#312))
GLOBAL_UNIT_ASSIGNED_CONTEXT((#316,#319,#317))
REPRESENTATION_CONTEXT('','3D')
);
#315=(
GEOMETRIC_REPRESENTATION_CONTEXT(3)
GLOBAL_UNCERTAINTY_ASSIGNED_CONTEXT((#313))
GLOBAL_UNIT_ASSIGNED_CONTEXT((#316,#319,#317))
REPRESENTATION_CONTEXT('','3D')
);
#316=(
LENGTH_UNIT()
NAMED_UNIT(*)
SI_UNIT(.MILLI.,.METRE.)
);
#317=(
NAMED_UNIT(*)
SI_UNIT($,.STERADIAN.)
SOLID_ANGLE_UNIT()
);
#318=DIMENSIONAL_EXPONENTS(0.,0.,0.,0.,0.,0.,0.);
#319=(
CONVERSION_BASED_UNIT('degree',#321)
NAMED_UNIT(#318)
PLANE_ANGLE_UNIT()
);
#320=(
NAMED_UNIT(*)
PLANE_ANGLE_UNIT()
SI_UNIT($,.RADIAN.)
);
#321=PLANE_ANGLE_MEASURE_WITH_UNIT(PLANE_ANGLE_MEASURE(0.01745329252),#320);
#322=SHAPE_DEFINITION_REPRESENTATION(#323,#324);
#323=PRODUCT_DEFINITION_SHAPE('',$,#326);
#324=SHAPE_REPRESENTATION('',(#177),#314);
#325=PRODUCT_DEFINITION_CONTEXT('part definition',#330,'design');
#326=PRODUCT_DEFINITION('sd_12','sd_12',#327,#325);
#327=PRODUCT_DEFINITION_FORMATION('',$,#332);
#328=PRODUCT_RELATED_PRODUCT_CATEGORY('sd_12','sd_12',(#332));
#329=APPLICATION_PROTOCOL_DEFINITION('international standard',
'automotive_design',2009,#330);
#330=APPLICATION_CONTEXT(
'Core Data for Automotive Mechanical Design Process');
#331=PRODUCT_CONTEXT('part definition',#330,'mechanical');
#332=PRODUCT('sd_12','sd_12',$,(#331));
#333=PRESENTATION_STYLE_ASSIGNMENT((#334));
#334=SURFACE_STYLE_USAGE(.BOTH.,#335);
#335=SURFACE_SIDE_STYLE($,(#336));
#336=SURFACE_STYLE_FILL_AREA(#337);
#337=FILL_AREA_STYLE($,(#338));
#338=FILL_AREA_STYLE_COLOUR($,#339);
#339=COLOUR_RGB('',0.749019607843137,0.749019607843137,0.749019607843137);
ENDSEC;
END-ISO-10303-21;
