ISO-10303-21;
HEADER;
/* Generated by software containing ST-Developer
 * from STEP Tools, Inc. (www.steptools.com) 
 */

FILE_DESCRIPTION(
/* description */ (''),
/* implementation_level */ '2;1');

FILE_NAME(
/* name */ 'H:\\cad\\neutral\\3d\\72644\\u_50-la.stp',
/* time_stamp */ '2018-11-14T14:52:47+01:00',
/* author */ ('leitheu\X\DFer'),
/* organization */ (''),
/* preprocessor_version */ 'ST-DEVELOPER v15.6',
/* originating_system */ 'Autodesk Inventor LT ',
/* authorisation */ '');

FILE_SCHEMA (('AUTOMOTIVE_DESIGN { 1 0 10303 214 3 1 1 }'));
ENDSEC;

DATA;
#10=MECHANICAL_DESIGN_GEOMETRIC_PRESENTATION_REPRESENTATION('',(#16,#17,
#18),#251);
#11=SHAPE_REPRESENTATION_RELATIONSHIP('SRR','None',#260,#12);
#12=ADVANCED_BREP_SHAPE_REPRESENTATION($,(#13),#250);
#13=MANIFOLD_SOLID_BREP('Volumenk\X\F6rper1',#140);
#14=SPHERICAL_SURFACE('',#153,3.5);
#15=SPHERICAL_SURFACE('',#154,1.3);
#16=STYLED_ITEM('',(#270),#132);
#17=STYLED_ITEM('',(#270),#133);
#18=STYLED_ITEM('',(#269),#13);
#19=CYLINDRICAL_SURFACE('',#147,3.495);
#20=CYLINDRICAL_SURFACE('',#151,3.5);
#21=CYLINDRICAL_SURFACE('',#156,1.3);
#22=CYLINDRICAL_SURFACE('',#160,1.85);
#23=CYLINDRICAL_SURFACE('',#164,2.5);
#24=CONICAL_SURFACE('',#145,3.345,45.);
#25=FACE_BOUND('',#48,.T.);
#26=FACE_BOUND('',#50,.T.);
#27=FACE_BOUND('',#52,.T.);
#28=FACE_BOUND('',#54,.T.);
#29=FACE_BOUND('',#56,.T.);
#30=FACE_BOUND('',#60,.T.);
#31=FACE_BOUND('',#62,.T.);
#32=FACE_BOUND('',#64,.T.);
#33=FACE_BOUND('',#66,.T.);
#34=FACE_BOUND('',#68,.T.);
#35=FACE_OUTER_BOUND('',#47,.T.);
#36=FACE_OUTER_BOUND('',#49,.T.);
#37=FACE_OUTER_BOUND('',#51,.T.);
#38=FACE_OUTER_BOUND('',#53,.T.);
#39=FACE_OUTER_BOUND('',#55,.T.);
#40=FACE_OUTER_BOUND('',#57,.T.);
#41=FACE_OUTER_BOUND('',#58,.T.);
#42=FACE_OUTER_BOUND('',#59,.T.);
#43=FACE_OUTER_BOUND('',#61,.T.);
#44=FACE_OUTER_BOUND('',#63,.T.);
#45=FACE_OUTER_BOUND('',#65,.T.);
#46=FACE_OUTER_BOUND('',#67,.T.);
#47=EDGE_LOOP('',(#102));
#48=EDGE_LOOP('',(#103));
#49=EDGE_LOOP('',(#104));
#50=EDGE_LOOP('',(#105));
#51=EDGE_LOOP('',(#106));
#52=EDGE_LOOP('',(#107));
#53=EDGE_LOOP('',(#108));
#54=EDGE_LOOP('',(#109));
#55=EDGE_LOOP('',(#110));
#56=EDGE_LOOP('',(#111));
#57=EDGE_LOOP('',(#112));
#58=EDGE_LOOP('',(#113));
#59=EDGE_LOOP('',(#114));
#60=EDGE_LOOP('',(#115));
#61=EDGE_LOOP('',(#116));
#62=EDGE_LOOP('',(#117));
#63=EDGE_LOOP('',(#118));
#64=EDGE_LOOP('',(#119));
#65=EDGE_LOOP('',(#120));
#66=EDGE_LOOP('',(#121));
#67=EDGE_LOOP('',(#122));
#68=EDGE_LOOP('',(#123));
#69=CIRCLE('',#143,3.195);
#70=CIRCLE('',#144,2.5);
#71=CIRCLE('',#146,3.495);
#72=CIRCLE('',#148,3.495);
#73=CIRCLE('',#150,3.5);
#74=CIRCLE('',#152,3.5);
#75=CIRCLE('',#155,1.3);
#76=CIRCLE('',#157,1.3);
#77=CIRCLE('',#159,1.85);
#78=CIRCLE('',#161,1.85);
#79=CIRCLE('',#163,2.5);
#80=VERTEX_POINT('',#215);
#81=VERTEX_POINT('',#217);
#82=VERTEX_POINT('',#220);
#83=VERTEX_POINT('',#223);
#84=VERTEX_POINT('',#226);
#85=VERTEX_POINT('',#229);
#86=VERTEX_POINT('',#233);
#87=VERTEX_POINT('',#236);
#88=VERTEX_POINT('',#239);
#89=VERTEX_POINT('',#242);
#90=VERTEX_POINT('',#245);
#91=EDGE_CURVE('',#80,#80,#69,.T.);
#92=EDGE_CURVE('',#81,#81,#70,.T.);
#93=EDGE_CURVE('',#82,#82,#71,.T.);
#94=EDGE_CURVE('',#83,#83,#72,.T.);
#95=EDGE_CURVE('',#84,#84,#73,.T.);
#96=EDGE_CURVE('',#85,#85,#74,.T.);
#97=EDGE_CURVE('',#86,#86,#75,.T.);
#98=EDGE_CURVE('',#87,#87,#76,.T.);
#99=EDGE_CURVE('',#88,#88,#77,.T.);
#100=EDGE_CURVE('',#89,#89,#78,.T.);
#101=EDGE_CURVE('',#90,#90,#79,.T.);
#102=ORIENTED_EDGE('',*,*,#91,.F.);
#103=ORIENTED_EDGE('',*,*,#92,.T.);
#104=ORIENTED_EDGE('',*,*,#91,.T.);
#105=ORIENTED_EDGE('',*,*,#93,.F.);
#106=ORIENTED_EDGE('',*,*,#93,.T.);
#107=ORIENTED_EDGE('',*,*,#94,.F.);
#108=ORIENTED_EDGE('',*,*,#95,.F.);
#109=ORIENTED_EDGE('',*,*,#94,.T.);
#110=ORIENTED_EDGE('',*,*,#95,.T.);
#111=ORIENTED_EDGE('',*,*,#96,.F.);
#112=ORIENTED_EDGE('',*,*,#96,.T.);
#113=ORIENTED_EDGE('',*,*,#97,.F.);
#114=ORIENTED_EDGE('',*,*,#97,.T.);
#115=ORIENTED_EDGE('',*,*,#98,.F.);
#116=ORIENTED_EDGE('',*,*,#99,.F.);
#117=ORIENTED_EDGE('',*,*,#98,.T.);
#118=ORIENTED_EDGE('',*,*,#99,.T.);
#119=ORIENTED_EDGE('',*,*,#100,.F.);
#120=ORIENTED_EDGE('',*,*,#101,.F.);
#121=ORIENTED_EDGE('',*,*,#100,.T.);
#122=ORIENTED_EDGE('',*,*,#101,.T.);
#123=ORIENTED_EDGE('',*,*,#92,.F.);
#124=PLANE('',#142);
#125=PLANE('',#149);
#126=PLANE('',#158);
#127=PLANE('',#162);
#128=ADVANCED_FACE('',(#35,#25),#124,.T.);
#129=ADVANCED_FACE('',(#36,#26),#24,.T.);
#130=ADVANCED_FACE('',(#37,#27),#19,.T.);
#131=ADVANCED_FACE('',(#38,#28),#125,.T.);
#132=ADVANCED_FACE('',(#39,#29),#20,.T.);
#133=ADVANCED_FACE('',(#40),#14,.T.);
#134=ADVANCED_FACE('',(#41),#15,.F.);
#135=ADVANCED_FACE('',(#42,#30),#21,.F.);
#136=ADVANCED_FACE('',(#43,#31),#126,.T.);
#137=ADVANCED_FACE('',(#44,#32),#22,.T.);
#138=ADVANCED_FACE('',(#45,#33),#127,.T.);
#139=ADVANCED_FACE('',(#46,#34),#23,.T.);
#140=CLOSED_SHELL('',(#128,#129,#130,#131,#132,#133,#134,#135,#136,#137,
#138,#139));
#141=AXIS2_PLACEMENT_3D('placement',#213,#165,#166);
#142=AXIS2_PLACEMENT_3D('',#214,#167,#168);
#143=AXIS2_PLACEMENT_3D('',#216,#169,#170);
#144=AXIS2_PLACEMENT_3D('',#218,#171,#172);
#145=AXIS2_PLACEMENT_3D('',#219,#173,#174);
#146=AXIS2_PLACEMENT_3D('',#221,#175,#176);
#147=AXIS2_PLACEMENT_3D('',#222,#177,#178);
#148=AXIS2_PLACEMENT_3D('',#224,#179,#180);
#149=AXIS2_PLACEMENT_3D('',#225,#181,#182);
#150=AXIS2_PLACEMENT_3D('',#227,#183,#184);
#151=AXIS2_PLACEMENT_3D('',#228,#185,#186);
#152=AXIS2_PLACEMENT_3D('',#230,#187,#188);
#153=AXIS2_PLACEMENT_3D('',#231,#189,#190);
#154=AXIS2_PLACEMENT_3D('',#232,#191,#192);
#155=AXIS2_PLACEMENT_3D('',#234,#193,#194);
#156=AXIS2_PLACEMENT_3D('',#235,#195,#196);
#157=AXIS2_PLACEMENT_3D('',#237,#197,#198);
#158=AXIS2_PLACEMENT_3D('',#238,#199,#200);
#159=AXIS2_PLACEMENT_3D('',#240,#201,#202);
#160=AXIS2_PLACEMENT_3D('',#241,#203,#204);
#161=AXIS2_PLACEMENT_3D('',#243,#205,#206);
#162=AXIS2_PLACEMENT_3D('',#244,#207,#208);
#163=AXIS2_PLACEMENT_3D('',#246,#209,#210);
#164=AXIS2_PLACEMENT_3D('',#247,#211,#212);
#165=DIRECTION('axis',(0.,0.,1.));
#166=DIRECTION('refdir',(1.,0.,0.));
#167=DIRECTION('center_axis',(0.,-1.,0.));
#168=DIRECTION('ref_axis',(0.,0.,-1.));
#169=DIRECTION('center_axis',(0.,1.,0.));
#170=DIRECTION('ref_axis',(1.,0.,0.));
#171=DIRECTION('center_axis',(0.,1.,0.));
#172=DIRECTION('ref_axis',(1.,0.,0.));
#173=DIRECTION('center_axis',(0.,1.,0.));
#174=DIRECTION('ref_axis',(-1.,0.,0.));
#175=DIRECTION('center_axis',(0.,1.,0.));
#176=DIRECTION('ref_axis',(1.,0.,0.));
#177=DIRECTION('center_axis',(0.,1.,0.));
#178=DIRECTION('ref_axis',(-1.,0.,0.));
#179=DIRECTION('center_axis',(0.,1.,0.));
#180=DIRECTION('ref_axis',(1.,0.,0.));
#181=DIRECTION('center_axis',(0.,-1.,0.));
#182=DIRECTION('ref_axis',(0.,0.,-1.));
#183=DIRECTION('center_axis',(0.,1.,0.));
#184=DIRECTION('ref_axis',(1.,0.,0.));
#185=DIRECTION('center_axis',(0.,1.,0.));
#186=DIRECTION('ref_axis',(-1.,0.,0.));
#187=DIRECTION('center_axis',(0.,1.,0.));
#188=DIRECTION('ref_axis',(1.,0.,0.));
#189=DIRECTION('center_axis',(0.,1.,-6.12323399573676E-17));
#190=DIRECTION('ref_axis',(0.,0.,-1.));
#191=DIRECTION('center_axis',(0.,1.,-6.12323399573676E-17));
#192=DIRECTION('ref_axis',(0.,0.,-1.));
#193=DIRECTION('center_axis',(0.,1.,0.));
#194=DIRECTION('ref_axis',(1.,0.,0.));
#195=DIRECTION('center_axis',(0.,1.,0.));
#196=DIRECTION('ref_axis',(-1.,0.,0.));
#197=DIRECTION('center_axis',(0.,1.,0.));
#198=DIRECTION('ref_axis',(1.,0.,0.));
#199=DIRECTION('center_axis',(0.,-1.,0.));
#200=DIRECTION('ref_axis',(0.,0.,-1.));
#201=DIRECTION('center_axis',(0.,1.,0.));
#202=DIRECTION('ref_axis',(1.,0.,0.));
#203=DIRECTION('center_axis',(0.,1.,0.));
#204=DIRECTION('ref_axis',(-1.,0.,0.));
#205=DIRECTION('center_axis',(0.,1.,0.));
#206=DIRECTION('ref_axis',(1.,0.,0.));
#207=DIRECTION('center_axis',(0.,-1.,0.));
#208=DIRECTION('ref_axis',(0.,0.,-1.));
#209=DIRECTION('center_axis',(0.,1.,0.));
#210=DIRECTION('ref_axis',(1.,0.,0.));
#211=DIRECTION('center_axis',(0.,1.,0.));
#212=DIRECTION('ref_axis',(-1.,0.,0.));
#213=CARTESIAN_POINT('',(0.,0.,0.));
#214=CARTESIAN_POINT('Origin',(-3.195,4.,0.));
#215=CARTESIAN_POINT('',(-3.195,4.,0.));
#216=CARTESIAN_POINT('Origin',(0.,4.,0.));
#217=CARTESIAN_POINT('',(-2.5,4.,0.));
#218=CARTESIAN_POINT('Origin',(0.,4.,0.));
#219=CARTESIAN_POINT('Origin',(0.,4.15,0.));
#220=CARTESIAN_POINT('',(-3.495,4.3,0.));
#221=CARTESIAN_POINT('Origin',(0.,4.3,0.));
#222=CARTESIAN_POINT('Origin',(0.,6.15,0.));
#223=CARTESIAN_POINT('',(-3.495,8.,0.));
#224=CARTESIAN_POINT('Origin',(0.,8.,0.));
#225=CARTESIAN_POINT('Origin',(-3.5,8.,0.));
#226=CARTESIAN_POINT('',(-3.5,8.,0.));
#227=CARTESIAN_POINT('Origin',(0.,8.,0.));
#228=CARTESIAN_POINT('Origin',(0.,13.25,0.));
#229=CARTESIAN_POINT('',(-3.5,18.5,0.));
#230=CARTESIAN_POINT('Origin',(0.,18.5,0.));
#231=CARTESIAN_POINT('Origin',(-4.53119315684521E-15,18.5,0.));
#232=CARTESIAN_POINT('Origin',(-2.29008951440555E-15,18.7,0.));
#233=CARTESIAN_POINT('',(-1.3,18.7,0.));
#234=CARTESIAN_POINT('Origin',(0.,18.7,0.));
#235=CARTESIAN_POINT('Origin',(0.,9.35,0.));
#236=CARTESIAN_POINT('',(-1.3,0.,0.));
#237=CARTESIAN_POINT('Origin',(0.,0.,0.));
#238=CARTESIAN_POINT('Origin',(-1.85,0.,0.));
#239=CARTESIAN_POINT('',(-1.85,0.,0.));
#240=CARTESIAN_POINT('Origin',(0.,0.,0.));
#241=CARTESIAN_POINT('Origin',(0.,0.15,0.));
#242=CARTESIAN_POINT('',(-1.85,0.3,0.));
#243=CARTESIAN_POINT('Origin',(0.,0.3,0.));
#244=CARTESIAN_POINT('Origin',(-2.5,0.3,0.));
#245=CARTESIAN_POINT('',(-2.5,0.3,0.));
#246=CARTESIAN_POINT('Origin',(0.,0.3,0.));
#247=CARTESIAN_POINT('Origin',(0.,2.15,0.));
#248=UNCERTAINTY_MEASURE_WITH_UNIT(LENGTH_MEASURE(0.01),#252,
'DISTANCE_ACCURACY_VALUE',
'Maximum model space distance between geometric entities at asserted c
onnectivities');
#249=UNCERTAINTY_MEASURE_WITH_UNIT(LENGTH_MEASURE(1.E-6),#252,
'DISTANCE_ACCURACY_VALUE',
'Maximum model space distance between geometric entities at asserted c
onnectivities');
#250=(
GEOMETRIC_REPRESENTATION_CONTEXT(3)
GLOBAL_UNCERTAINTY_ASSIGNED_CONTEXT((#248))
GLOBAL_UNIT_ASSIGNED_CONTEXT((#252,#255,#253))
REPRESENTATION_CONTEXT('','3D')
);
#251=(
GEOMETRIC_REPRESENTATION_CONTEXT(3)
GLOBAL_UNCERTAINTY_ASSIGNED_CONTEXT((#249))
GLOBAL_UNIT_ASSIGNED_CONTEXT((#252,#255,#253))
REPRESENTATION_CONTEXT('','3D')
);
#252=(
LENGTH_UNIT()
NAMED_UNIT(*)
SI_UNIT(.MILLI.,.METRE.)
);
#253=(
NAMED_UNIT(*)
SI_UNIT($,.STERADIAN.)
SOLID_ANGLE_UNIT()
);
#254=DIMENSIONAL_EXPONENTS(0.,0.,0.,0.,0.,0.,0.);
#255=(
CONVERSION_BASED_UNIT('degree',#257)
NAMED_UNIT(#254)
PLANE_ANGLE_UNIT()
);
#256=(
NAMED_UNIT(*)
PLANE_ANGLE_UNIT()
SI_UNIT($,.RADIAN.)
);
#257=PLANE_ANGLE_MEASURE_WITH_UNIT(PLANE_ANGLE_MEASURE(0.01745329252),#256);
#258=SHAPE_DEFINITION_REPRESENTATION(#259,#260);
#259=PRODUCT_DEFINITION_SHAPE('',$,#262);
#260=SHAPE_REPRESENTATION('',(#141),#250);
#261=PRODUCT_DEFINITION_CONTEXT('part definition',#266,'design');
#262=PRODUCT_DEFINITION('U 50','U 50',#263,#261);
#263=PRODUCT_DEFINITION_FORMATION('',$,#268);
#264=PRODUCT_RELATED_PRODUCT_CATEGORY('U 50','U 50',(#268));
#265=APPLICATION_PROTOCOL_DEFINITION('international standard',
'automotive_design',2009,#266);
#266=APPLICATION_CONTEXT(
'Core Data for Automotive Mechanical Design Process');
#267=PRODUCT_CONTEXT('part definition',#266,'mechanical');
#268=PRODUCT('U 50','U 50',$,(#267));
#269=PRESENTATION_STYLE_ASSIGNMENT((#271));
#270=PRESENTATION_STYLE_ASSIGNMENT((#272));
#271=SURFACE_STYLE_USAGE(.BOTH.,#273);
#272=SURFACE_STYLE_USAGE(.BOTH.,#274);
#273=SURFACE_SIDE_STYLE($,(#275));
#274=SURFACE_SIDE_STYLE($,(#276));
#275=SURFACE_STYLE_FILL_AREA(#277);
#276=SURFACE_STYLE_FILL_AREA(#278);
#277=FILL_AREA_STYLE($,(#279));
#278=FILL_AREA_STYLE($,(#280));
#279=FILL_AREA_STYLE_COLOUR($,#281);
#280=FILL_AREA_STYLE_COLOUR($,#282);
#281=COLOUR_RGB('',0.0196078431372549,0.0196078431372549,0.0196078431372549);
#282=COLOUR_RGB('',0.305882352941176,0.36078431372549,0.580392156862745);
ENDSEC;
END-ISO-10303-21;
