ISO-10303-21;
HEADER;
/* Generated by software containing ST-Developer
 * from STEP Tools, Inc. (www.steptools.com) 
 */

FILE_DESCRIPTION(
/* description */ (''),
/* implementation_level */ '2;1');

FILE_NAME(
/* name */ 'H:\\cad\\neutral\\3d\\70363\\iqsc_100_msv.stp',
/* time_stamp */ '2017-11-02T11:30:52+01:00',
/* author */ ('Hamoud'),
/* organization */ (''),
/* preprocessor_version */ 'ST-DEVELOPER v15.6',
/* originating_system */ 'Autodesk Inventor LT ',
/* authorisation */ '');

FILE_SCHEMA (('AUTOMOTIVE_DESIGN { 1 0 10303 214 3 1 1 }'));
ENDSEC;

DATA;
#10=MECHANICAL_DESIGN_GEOMETRIC_PRESENTATION_REPRESENTATION('',(#14,#15),
#572);
#11=TOROIDAL_SURFACE('',#355,7.,0.5);
#12=SHAPE_REPRESENTATION_RELATIONSHIP('SRR','None',#581,#13);
#13=ADVANCED_BREP_SHAPE_REPRESENTATION($,(#16,#17),#571);
#14=STYLED_ITEM('',(#591),#16);
#15=STYLED_ITEM('',(#591),#17);
#16=MANIFOLD_SOLID_BREP('Solid',#316);
#17=MANIFOLD_SOLID_BREP('Solid_1',#317);
#18=CYLINDRICAL_SURFACE('',#324,7.4999999999972);
#19=CYLINDRICAL_SURFACE('',#330,5.99999999999965);
#20=CYLINDRICAL_SURFACE('',#337,6.84999999999999);
#21=CYLINDRICAL_SURFACE('',#341,6.5);
#22=CYLINDRICAL_SURFACE('',#347,5.09999999999999);
#23=CYLINDRICAL_SURFACE('',#353,7.5);
#24=CYLINDRICAL_SURFACE('',#363,5.09999999999999);
#25=CYLINDRICAL_SURFACE('',#369,6.15000000000001);
#26=CYLINDRICAL_SURFACE('',#373,6.8);
#27=CONICAL_SURFACE('',#322,7.49999999998823,45.0000000000386);
#28=CONICAL_SURFACE('',#326,7.4999999999972,44.9999999999599);
#29=CONICAL_SURFACE('',#332,5.99999999999965,44.9999999999599);
#30=CONICAL_SURFACE('',#335,7.04999999999996,30.0000000000012);
#31=CONICAL_SURFACE('',#339,6.84999999999999,45.);
#32=CONICAL_SURFACE('',#345,5.6,45.);
#33=CONICAL_SURFACE('',#357,7.08682408883347,79.9999999999997);
#34=CONICAL_SURFACE('',#361,5.59999999999999,45.0000000000004);
#35=CONICAL_SURFACE('',#367,6.15000000000001,30.);
#36=CONICAL_SURFACE('',#371,6.8,45.);
#37=FACE_BOUND('',#92,.T.);
#38=FACE_BOUND('',#94,.T.);
#39=FACE_BOUND('',#96,.T.);
#40=FACE_BOUND('',#98,.T.);
#41=FACE_BOUND('',#100,.T.);
#42=FACE_BOUND('',#102,.T.);
#43=FACE_BOUND('',#104,.T.);
#44=FACE_BOUND('',#107,.T.);
#45=FACE_BOUND('',#109,.T.);
#46=FACE_BOUND('',#111,.T.);
#47=FACE_BOUND('',#113,.T.);
#48=FACE_BOUND('',#115,.T.);
#49=FACE_BOUND('',#117,.T.);
#50=FACE_BOUND('',#119,.T.);
#51=FACE_BOUND('',#122,.T.);
#52=FACE_BOUND('',#124,.T.);
#53=FACE_BOUND('',#126,.T.);
#54=FACE_BOUND('',#128,.T.);
#55=FACE_BOUND('',#130,.T.);
#56=FACE_BOUND('',#132,.T.);
#57=FACE_BOUND('',#134,.T.);
#58=FACE_BOUND('',#136,.T.);
#59=FACE_BOUND('',#138,.T.);
#60=FACE_BOUND('',#140,.T.);
#61=FACE_BOUND('',#142,.T.);
#62=FACE_BOUND('',#144,.T.);
#63=FACE_OUTER_BOUND('',#91,.T.);
#64=FACE_OUTER_BOUND('',#93,.T.);
#65=FACE_OUTER_BOUND('',#95,.T.);
#66=FACE_OUTER_BOUND('',#97,.T.);
#67=FACE_OUTER_BOUND('',#99,.T.);
#68=FACE_OUTER_BOUND('',#101,.T.);
#69=FACE_OUTER_BOUND('',#103,.T.);
#70=FACE_OUTER_BOUND('',#105,.T.);
#71=FACE_OUTER_BOUND('',#106,.T.);
#72=FACE_OUTER_BOUND('',#108,.T.);
#73=FACE_OUTER_BOUND('',#110,.T.);
#74=FACE_OUTER_BOUND('',#112,.T.);
#75=FACE_OUTER_BOUND('',#114,.T.);
#76=FACE_OUTER_BOUND('',#116,.T.);
#77=FACE_OUTER_BOUND('',#118,.T.);
#78=FACE_OUTER_BOUND('',#120,.T.);
#79=FACE_OUTER_BOUND('',#121,.T.);
#80=FACE_OUTER_BOUND('',#123,.T.);
#81=FACE_OUTER_BOUND('',#125,.T.);
#82=FACE_OUTER_BOUND('',#127,.T.);
#83=FACE_OUTER_BOUND('',#129,.T.);
#84=FACE_OUTER_BOUND('',#131,.T.);
#85=FACE_OUTER_BOUND('',#133,.T.);
#86=FACE_OUTER_BOUND('',#135,.T.);
#87=FACE_OUTER_BOUND('',#137,.T.);
#88=FACE_OUTER_BOUND('',#139,.T.);
#89=FACE_OUTER_BOUND('',#141,.T.);
#90=FACE_OUTER_BOUND('',#143,.T.);
#91=EDGE_LOOP('',(#226));
#92=EDGE_LOOP('',(#227));
#93=EDGE_LOOP('',(#228));
#94=EDGE_LOOP('',(#229));
#95=EDGE_LOOP('',(#230));
#96=EDGE_LOOP('',(#231));
#97=EDGE_LOOP('',(#232));
#98=EDGE_LOOP('',(#233));
#99=EDGE_LOOP('',(#234));
#100=EDGE_LOOP('',(#235));
#101=EDGE_LOOP('',(#236));
#102=EDGE_LOOP('',(#237));
#103=EDGE_LOOP('',(#238));
#104=EDGE_LOOP('',(#239));
#105=EDGE_LOOP('',(#240));
#106=EDGE_LOOP('',(#241));
#107=EDGE_LOOP('',(#242));
#108=EDGE_LOOP('',(#243));
#109=EDGE_LOOP('',(#244));
#110=EDGE_LOOP('',(#245));
#111=EDGE_LOOP('',(#246));
#112=EDGE_LOOP('',(#247));
#113=EDGE_LOOP('',(#248));
#114=EDGE_LOOP('',(#249));
#115=EDGE_LOOP('',(#250));
#116=EDGE_LOOP('',(#251));
#117=EDGE_LOOP('',(#252));
#118=EDGE_LOOP('',(#253));
#119=EDGE_LOOP('',(#254));
#120=EDGE_LOOP('',(#255));
#121=EDGE_LOOP('',(#256));
#122=EDGE_LOOP('',(#257));
#123=EDGE_LOOP('',(#258));
#124=EDGE_LOOP('',(#259));
#125=EDGE_LOOP('',(#260));
#126=EDGE_LOOP('',(#261));
#127=EDGE_LOOP('',(#262));
#128=EDGE_LOOP('',(#263));
#129=EDGE_LOOP('',(#264));
#130=EDGE_LOOP('',(#265));
#131=EDGE_LOOP('',(#266));
#132=EDGE_LOOP('',(#267));
#133=EDGE_LOOP('',(#268));
#134=EDGE_LOOP('',(#269));
#135=EDGE_LOOP('',(#270));
#136=EDGE_LOOP('',(#271));
#137=EDGE_LOOP('',(#272));
#138=EDGE_LOOP('',(#273));
#139=EDGE_LOOP('',(#274));
#140=EDGE_LOOP('',(#275));
#141=EDGE_LOOP('',(#276));
#142=EDGE_LOOP('',(#277));
#143=EDGE_LOOP('',(#278));
#144=EDGE_LOOP('',(#279));
#145=CIRCLE('',#320,7.29999999998809);
#146=CIRCLE('',#321,7.05000000000003);
#147=CIRCLE('',#323,7.49999999998823);
#148=CIRCLE('',#325,7.4999999999972);
#149=CIRCLE('',#327,6.99999999999755);
#150=CIRCLE('',#329,5.99999999999755);
#151=CIRCLE('',#331,5.99999999999965);
#152=CIRCLE('',#333,5.5);
#153=CIRCLE('',#336,6.84999999999999);
#154=CIRCLE('',#338,6.84999999999999);
#155=CIRCLE('',#340,6.5);
#156=CIRCLE('',#342,6.5);
#157=CIRCLE('',#344,5.59999999999999);
#158=CIRCLE('',#346,5.09999999999999);
#159=CIRCLE('',#348,5.09999999999999);
#160=CIRCLE('',#351,7.5);
#161=CIRCLE('',#352,6.8);
#162=CIRCLE('',#354,7.5);
#163=CIRCLE('',#356,7.08682408883347);
#164=CIRCLE('',#358,6.3);
#165=CIRCLE('',#360,5.59999999999999);
#166=CIRCLE('',#362,5.09999999999999);
#167=CIRCLE('',#364,5.09999999999999);
#168=CIRCLE('',#366,5.15000000000001);
#169=CIRCLE('',#368,6.15000000000001);
#170=CIRCLE('',#370,6.15000000000001);
#171=CIRCLE('',#372,6.8);
#172=VERTEX_POINT('',#488);
#173=VERTEX_POINT('',#490);
#174=VERTEX_POINT('',#493);
#175=VERTEX_POINT('',#496);
#176=VERTEX_POINT('',#499);
#177=VERTEX_POINT('',#502);
#178=VERTEX_POINT('',#505);
#179=VERTEX_POINT('',#508);
#180=VERTEX_POINT('',#512);
#181=VERTEX_POINT('',#515);
#182=VERTEX_POINT('',#518);
#183=VERTEX_POINT('',#521);
#184=VERTEX_POINT('',#524);
#185=VERTEX_POINT('',#527);
#186=VERTEX_POINT('',#530);
#187=VERTEX_POINT('',#534);
#188=VERTEX_POINT('',#536);
#189=VERTEX_POINT('',#539);
#190=VERTEX_POINT('',#542);
#191=VERTEX_POINT('',#545);
#192=VERTEX_POINT('',#548);
#193=VERTEX_POINT('',#551);
#194=VERTEX_POINT('',#554);
#195=VERTEX_POINT('',#557);
#196=VERTEX_POINT('',#560);
#197=VERTEX_POINT('',#563);
#198=VERTEX_POINT('',#566);
#199=EDGE_CURVE('',#172,#172,#145,.T.);
#200=EDGE_CURVE('',#173,#173,#146,.T.);
#201=EDGE_CURVE('',#174,#174,#147,.T.);
#202=EDGE_CURVE('',#175,#175,#148,.T.);
#203=EDGE_CURVE('',#176,#176,#149,.T.);
#204=EDGE_CURVE('',#177,#177,#150,.T.);
#205=EDGE_CURVE('',#178,#178,#151,.T.);
#206=EDGE_CURVE('',#179,#179,#152,.T.);
#207=EDGE_CURVE('',#180,#180,#153,.T.);
#208=EDGE_CURVE('',#181,#181,#154,.T.);
#209=EDGE_CURVE('',#182,#182,#155,.T.);
#210=EDGE_CURVE('',#183,#183,#156,.T.);
#211=EDGE_CURVE('',#184,#184,#157,.T.);
#212=EDGE_CURVE('',#185,#185,#158,.T.);
#213=EDGE_CURVE('',#186,#186,#159,.T.);
#214=EDGE_CURVE('',#187,#187,#160,.T.);
#215=EDGE_CURVE('',#188,#188,#161,.T.);
#216=EDGE_CURVE('',#189,#189,#162,.T.);
#217=EDGE_CURVE('',#190,#190,#163,.T.);
#218=EDGE_CURVE('',#191,#191,#164,.T.);
#219=EDGE_CURVE('',#192,#192,#165,.T.);
#220=EDGE_CURVE('',#193,#193,#166,.T.);
#221=EDGE_CURVE('',#194,#194,#167,.T.);
#222=EDGE_CURVE('',#195,#195,#168,.T.);
#223=EDGE_CURVE('',#196,#196,#169,.T.);
#224=EDGE_CURVE('',#197,#197,#170,.T.);
#225=EDGE_CURVE('',#198,#198,#171,.T.);
#226=ORIENTED_EDGE('',*,*,#199,.T.);
#227=ORIENTED_EDGE('',*,*,#200,.F.);
#228=ORIENTED_EDGE('',*,*,#201,.T.);
#229=ORIENTED_EDGE('',*,*,#199,.F.);
#230=ORIENTED_EDGE('',*,*,#202,.T.);
#231=ORIENTED_EDGE('',*,*,#201,.F.);
#232=ORIENTED_EDGE('',*,*,#203,.T.);
#233=ORIENTED_EDGE('',*,*,#202,.F.);
#234=ORIENTED_EDGE('',*,*,#203,.F.);
#235=ORIENTED_EDGE('',*,*,#204,.T.);
#236=ORIENTED_EDGE('',*,*,#205,.T.);
#237=ORIENTED_EDGE('',*,*,#204,.F.);
#238=ORIENTED_EDGE('',*,*,#206,.T.);
#239=ORIENTED_EDGE('',*,*,#205,.F.);
#240=ORIENTED_EDGE('',*,*,#206,.F.);
#241=ORIENTED_EDGE('',*,*,#200,.T.);
#242=ORIENTED_EDGE('',*,*,#207,.F.);
#243=ORIENTED_EDGE('',*,*,#208,.F.);
#244=ORIENTED_EDGE('',*,*,#207,.T.);
#245=ORIENTED_EDGE('',*,*,#209,.F.);
#246=ORIENTED_EDGE('',*,*,#208,.T.);
#247=ORIENTED_EDGE('',*,*,#210,.F.);
#248=ORIENTED_EDGE('',*,*,#209,.T.);
#249=ORIENTED_EDGE('',*,*,#210,.T.);
#250=ORIENTED_EDGE('',*,*,#211,.F.);
#251=ORIENTED_EDGE('',*,*,#212,.F.);
#252=ORIENTED_EDGE('',*,*,#211,.T.);
#253=ORIENTED_EDGE('',*,*,#213,.F.);
#254=ORIENTED_EDGE('',*,*,#212,.T.);
#255=ORIENTED_EDGE('',*,*,#213,.T.);
#256=ORIENTED_EDGE('',*,*,#214,.T.);
#257=ORIENTED_EDGE('',*,*,#215,.F.);
#258=ORIENTED_EDGE('',*,*,#216,.T.);
#259=ORIENTED_EDGE('',*,*,#214,.F.);
#260=ORIENTED_EDGE('',*,*,#217,.T.);
#261=ORIENTED_EDGE('',*,*,#216,.F.);
#262=ORIENTED_EDGE('',*,*,#218,.T.);
#263=ORIENTED_EDGE('',*,*,#217,.F.);
#264=ORIENTED_EDGE('',*,*,#218,.F.);
#265=ORIENTED_EDGE('',*,*,#219,.T.);
#266=ORIENTED_EDGE('',*,*,#219,.F.);
#267=ORIENTED_EDGE('',*,*,#220,.T.);
#268=ORIENTED_EDGE('',*,*,#221,.T.);
#269=ORIENTED_EDGE('',*,*,#220,.F.);
#270=ORIENTED_EDGE('',*,*,#222,.T.);
#271=ORIENTED_EDGE('',*,*,#221,.F.);
#272=ORIENTED_EDGE('',*,*,#223,.T.);
#273=ORIENTED_EDGE('',*,*,#222,.F.);
#274=ORIENTED_EDGE('',*,*,#224,.T.);
#275=ORIENTED_EDGE('',*,*,#223,.F.);
#276=ORIENTED_EDGE('',*,*,#225,.T.);
#277=ORIENTED_EDGE('',*,*,#224,.F.);
#278=ORIENTED_EDGE('',*,*,#215,.T.);
#279=ORIENTED_EDGE('',*,*,#225,.F.);
#280=PLANE('',#319);
#281=PLANE('',#328);
#282=PLANE('',#334);
#283=PLANE('',#343);
#284=PLANE('',#349);
#285=PLANE('',#350);
#286=PLANE('',#359);
#287=PLANE('',#365);
#288=ADVANCED_FACE('',(#63,#37),#280,.T.);
#289=ADVANCED_FACE('',(#64,#38),#27,.T.);
#290=ADVANCED_FACE('',(#65,#39),#18,.T.);
#291=ADVANCED_FACE('',(#66,#40),#28,.T.);
#292=ADVANCED_FACE('',(#67,#41),#281,.T.);
#293=ADVANCED_FACE('',(#68,#42),#19,.T.);
#294=ADVANCED_FACE('',(#69,#43),#29,.T.);
#295=ADVANCED_FACE('',(#70),#282,.T.);
#296=ADVANCED_FACE('',(#71,#44),#30,.F.);
#297=ADVANCED_FACE('',(#72,#45),#20,.F.);
#298=ADVANCED_FACE('',(#73,#46),#31,.F.);
#299=ADVANCED_FACE('',(#74,#47),#21,.F.);
#300=ADVANCED_FACE('',(#75,#48),#283,.T.);
#301=ADVANCED_FACE('',(#76,#49),#32,.F.);
#302=ADVANCED_FACE('',(#77,#50),#22,.F.);
#303=ADVANCED_FACE('',(#78),#284,.T.);
#304=ADVANCED_FACE('',(#79,#51),#285,.T.);
#305=ADVANCED_FACE('',(#80,#52),#23,.T.);
#306=ADVANCED_FACE('',(#81,#53),#11,.T.);
#307=ADVANCED_FACE('',(#82,#54),#33,.T.);
#308=ADVANCED_FACE('',(#83,#55),#286,.T.);
#309=ADVANCED_FACE('',(#84,#56),#34,.F.);
#310=ADVANCED_FACE('',(#85,#57),#24,.F.);
#311=ADVANCED_FACE('',(#86,#58),#287,.T.);
#312=ADVANCED_FACE('',(#87,#59),#35,.T.);
#313=ADVANCED_FACE('',(#88,#60),#25,.T.);
#314=ADVANCED_FACE('',(#89,#61),#36,.T.);
#315=ADVANCED_FACE('',(#90,#62),#26,.T.);
#316=CLOSED_SHELL('',(#288,#289,#290,#291,#292,#293,#294,#295,#296,#297,
#298,#299,#300,#301,#302,#303));
#317=CLOSED_SHELL('',(#304,#305,#306,#307,#308,#309,#310,#311,#312,#313,
#314,#315));
#318=AXIS2_PLACEMENT_3D('placement',#486,#374,#375);
#319=AXIS2_PLACEMENT_3D('',#487,#376,#377);
#320=AXIS2_PLACEMENT_3D('',#489,#378,#379);
#321=AXIS2_PLACEMENT_3D('',#491,#380,#381);
#322=AXIS2_PLACEMENT_3D('',#492,#382,#383);
#323=AXIS2_PLACEMENT_3D('',#494,#384,#385);
#324=AXIS2_PLACEMENT_3D('',#495,#386,#387);
#325=AXIS2_PLACEMENT_3D('',#497,#388,#389);
#326=AXIS2_PLACEMENT_3D('',#498,#390,#391);
#327=AXIS2_PLACEMENT_3D('',#500,#392,#393);
#328=AXIS2_PLACEMENT_3D('',#501,#394,#395);
#329=AXIS2_PLACEMENT_3D('',#503,#396,#397);
#330=AXIS2_PLACEMENT_3D('',#504,#398,#399);
#331=AXIS2_PLACEMENT_3D('',#506,#400,#401);
#332=AXIS2_PLACEMENT_3D('',#507,#402,#403);
#333=AXIS2_PLACEMENT_3D('',#509,#404,#405);
#334=AXIS2_PLACEMENT_3D('',#510,#406,#407);
#335=AXIS2_PLACEMENT_3D('',#511,#408,#409);
#336=AXIS2_PLACEMENT_3D('',#513,#410,#411);
#337=AXIS2_PLACEMENT_3D('',#514,#412,#413);
#338=AXIS2_PLACEMENT_3D('',#516,#414,#415);
#339=AXIS2_PLACEMENT_3D('',#517,#416,#417);
#340=AXIS2_PLACEMENT_3D('',#519,#418,#419);
#341=AXIS2_PLACEMENT_3D('',#520,#420,#421);
#342=AXIS2_PLACEMENT_3D('',#522,#422,#423);
#343=AXIS2_PLACEMENT_3D('',#523,#424,#425);
#344=AXIS2_PLACEMENT_3D('',#525,#426,#427);
#345=AXIS2_PLACEMENT_3D('',#526,#428,#429);
#346=AXIS2_PLACEMENT_3D('',#528,#430,#431);
#347=AXIS2_PLACEMENT_3D('',#529,#432,#433);
#348=AXIS2_PLACEMENT_3D('',#531,#434,#435);
#349=AXIS2_PLACEMENT_3D('',#532,#436,#437);
#350=AXIS2_PLACEMENT_3D('',#533,#438,#439);
#351=AXIS2_PLACEMENT_3D('',#535,#440,#441);
#352=AXIS2_PLACEMENT_3D('',#537,#442,#443);
#353=AXIS2_PLACEMENT_3D('',#538,#444,#445);
#354=AXIS2_PLACEMENT_3D('',#540,#446,#447);
#355=AXIS2_PLACEMENT_3D('',#541,#448,#449);
#356=AXIS2_PLACEMENT_3D('',#543,#450,#451);
#357=AXIS2_PLACEMENT_3D('',#544,#452,#453);
#358=AXIS2_PLACEMENT_3D('',#546,#454,#455);
#359=AXIS2_PLACEMENT_3D('',#547,#456,#457);
#360=AXIS2_PLACEMENT_3D('',#549,#458,#459);
#361=AXIS2_PLACEMENT_3D('',#550,#460,#461);
#362=AXIS2_PLACEMENT_3D('',#552,#462,#463);
#363=AXIS2_PLACEMENT_3D('',#553,#464,#465);
#364=AXIS2_PLACEMENT_3D('',#555,#466,#467);
#365=AXIS2_PLACEMENT_3D('',#556,#468,#469);
#366=AXIS2_PLACEMENT_3D('',#558,#470,#471);
#367=AXIS2_PLACEMENT_3D('',#559,#472,#473);
#368=AXIS2_PLACEMENT_3D('',#561,#474,#475);
#369=AXIS2_PLACEMENT_3D('',#562,#476,#477);
#370=AXIS2_PLACEMENT_3D('',#564,#478,#479);
#371=AXIS2_PLACEMENT_3D('',#565,#480,#481);
#372=AXIS2_PLACEMENT_3D('',#567,#482,#483);
#373=AXIS2_PLACEMENT_3D('',#568,#484,#485);
#374=DIRECTION('axis',(0.,0.,1.));
#375=DIRECTION('refdir',(1.,0.,0.));
#376=DIRECTION('center_axis',(7.00511544196429E-13,0.,1.));
#377=DIRECTION('ref_axis',(1.,0.,-6.99884594723699E-13));
#378=DIRECTION('center_axis',(7.00322600520858E-13,0.,1.));
#379=DIRECTION('ref_axis',(1.,0.,-7.00322600520858E-13));
#380=DIRECTION('center_axis',(7.00511544196429E-13,0.,1.));
#381=DIRECTION('ref_axis',(0.,1.,0.));
#382=DIRECTION('center_axis',(-7.00595137461503E-13,0.,-1.));
#383=DIRECTION('ref_axis',(1.,0.,-7.00595137461503E-13));
#384=DIRECTION('center_axis',(7.00595137460558E-13,0.,1.));
#385=DIRECTION('ref_axis',(1.,0.,-7.00595137460558E-13));
#386=DIRECTION('center_axis',(7.00550728538475E-13,0.,1.));
#387=DIRECTION('ref_axis',(1.,0.,-7.00550728538475E-13));
#388=DIRECTION('center_axis',(7.00358289881134E-13,0.,1.));
#389=DIRECTION('ref_axis',(1.,0.,-7.00358289881134E-13));
#390=DIRECTION('center_axis',(7.00358289880153E-13,0.,1.));
#391=DIRECTION('ref_axis',(1.,0.,-7.00358289880153E-13));
#392=DIRECTION('center_axis',(7.00645890512258E-13,0.,1.));
#393=DIRECTION('ref_axis',(1.,0.,-7.00645890512258E-13));
#394=DIRECTION('center_axis',(-7.00511544196429E-13,0.,-1.));
#395=DIRECTION('ref_axis',(-1.,0.,6.99884594723699E-13));
#396=DIRECTION('center_axis',(7.00476713670452E-13,0.,1.));
#397=DIRECTION('ref_axis',(1.,0.,-7.00476713670452E-13));
#398=DIRECTION('center_axis',(7.0047671367017E-13,0.,1.));
#399=DIRECTION('ref_axis',(1.,0.,-7.0047671367017E-13));
#400=DIRECTION('center_axis',(7.00476713670206E-13,0.,1.));
#401=DIRECTION('ref_axis',(1.,0.,-7.00476713670206E-13));
#402=DIRECTION('center_axis',(7.00476713669225E-13,0.,1.));
#403=DIRECTION('ref_axis',(1.,0.,-7.00476713669225E-13));
#404=DIRECTION('center_axis',(7.00530542665299E-13,0.,1.));
#405=DIRECTION('ref_axis',(1.,0.,-7.00530542665299E-13));
#406=DIRECTION('center_axis',(-7.00511544196429E-13,0.,-1.));
#407=DIRECTION('ref_axis',(-1.,0.,7.00772773143399E-13));
#408=DIRECTION('center_axis',(0.,0.,1.));
#409=DIRECTION('ref_axis',(1.,0.,0.));
#410=DIRECTION('center_axis',(0.,0.,1.));
#411=DIRECTION('ref_axis',(1.,0.,0.));
#412=DIRECTION('center_axis',(0.,0.,1.));
#413=DIRECTION('ref_axis',(1.,0.,0.));
#414=DIRECTION('center_axis',(0.,0.,1.));
#415=DIRECTION('ref_axis',(1.,0.,0.));
#416=DIRECTION('center_axis',(0.,0.,1.));
#417=DIRECTION('ref_axis',(1.,0.,0.));
#418=DIRECTION('center_axis',(0.,0.,1.));
#419=DIRECTION('ref_axis',(1.,0.,0.));
#420=DIRECTION('center_axis',(0.,0.,1.));
#421=DIRECTION('ref_axis',(1.,0.,0.));
#422=DIRECTION('center_axis',(0.,0.,1.));
#423=DIRECTION('ref_axis',(1.,0.,0.));
#424=DIRECTION('center_axis',(0.,0.,1.));
#425=DIRECTION('ref_axis',(1.,0.,0.));
#426=DIRECTION('center_axis',(0.,0.,1.));
#427=DIRECTION('ref_axis',(1.,0.,0.));
#428=DIRECTION('center_axis',(0.,0.,1.));
#429=DIRECTION('ref_axis',(1.,0.,0.));
#430=DIRECTION('center_axis',(0.,0.,1.));
#431=DIRECTION('ref_axis',(1.,0.,0.));
#432=DIRECTION('center_axis',(0.,0.,1.));
#433=DIRECTION('ref_axis',(1.,0.,0.));
#434=DIRECTION('center_axis',(0.,0.,1.));
#435=DIRECTION('ref_axis',(1.,0.,0.));
#436=DIRECTION('center_axis',(0.,0.,1.));
#437=DIRECTION('ref_axis',(1.,0.,0.));
#438=DIRECTION('center_axis',(0.,0.,-1.));
#439=DIRECTION('ref_axis',(-1.,0.,0.));
#440=DIRECTION('center_axis',(0.,0.,-1.));
#441=DIRECTION('ref_axis',(-1.,0.,0.));
#442=DIRECTION('center_axis',(0.,0.,-1.));
#443=DIRECTION('ref_axis',(-1.,0.,0.));
#444=DIRECTION('center_axis',(0.,0.,-1.));
#445=DIRECTION('ref_axis',(-1.,0.,0.));
#446=DIRECTION('center_axis',(0.,0.,-1.));
#447=DIRECTION('ref_axis',(-1.,0.,0.));
#448=DIRECTION('center_axis',(0.,0.,-1.));
#449=DIRECTION('ref_axis',(0.,1.,0.));
#450=DIRECTION('center_axis',(0.,0.,-1.));
#451=DIRECTION('ref_axis',(-1.,0.,0.));
#452=DIRECTION('center_axis',(0.,0.,-1.));
#453=DIRECTION('ref_axis',(-1.,0.,0.));
#454=DIRECTION('center_axis',(0.,0.,-1.));
#455=DIRECTION('ref_axis',(-1.,0.,0.));
#456=DIRECTION('center_axis',(0.,0.,1.));
#457=DIRECTION('ref_axis',(1.,0.,0.));
#458=DIRECTION('center_axis',(0.,0.,-1.));
#459=DIRECTION('ref_axis',(1.,0.,0.));
#460=DIRECTION('center_axis',(0.,0.,1.));
#461=DIRECTION('ref_axis',(1.,0.,0.));
#462=DIRECTION('center_axis',(0.,0.,-1.));
#463=DIRECTION('ref_axis',(1.,0.,0.));
#464=DIRECTION('center_axis',(0.,0.,1.));
#465=DIRECTION('ref_axis',(-1.,0.,0.));
#466=DIRECTION('center_axis',(0.,0.,-1.));
#467=DIRECTION('ref_axis',(-1.,0.,0.));
#468=DIRECTION('center_axis',(0.,0.,-1.));
#469=DIRECTION('ref_axis',(-1.,0.,0.));
#470=DIRECTION('center_axis',(0.,0.,-1.));
#471=DIRECTION('ref_axis',(-1.,0.,0.));
#472=DIRECTION('center_axis',(0.,0.,1.));
#473=DIRECTION('ref_axis',(-1.,0.,0.));
#474=DIRECTION('center_axis',(0.,0.,-1.));
#475=DIRECTION('ref_axis',(-1.,0.,0.));
#476=DIRECTION('center_axis',(0.,0.,-1.));
#477=DIRECTION('ref_axis',(-1.,0.,0.));
#478=DIRECTION('center_axis',(0.,0.,-1.));
#479=DIRECTION('ref_axis',(-1.,0.,0.));
#480=DIRECTION('center_axis',(0.,0.,1.));
#481=DIRECTION('ref_axis',(-1.,0.,0.));
#482=DIRECTION('center_axis',(0.,0.,-1.));
#483=DIRECTION('ref_axis',(-1.,0.,0.));
#484=DIRECTION('center_axis',(0.,0.,-1.));
#485=DIRECTION('ref_axis',(-1.,0.,0.));
#486=CARTESIAN_POINT('',(0.,0.,0.));
#487=CARTESIAN_POINT('Origin',(19.2186060294736,12.1303919399646,22.961061976018));
#488=CARTESIAN_POINT('',(19.2186060294736,12.1303919399646,22.961061976018));
#489=CARTESIAN_POINT('Origin',(11.9186060294855,12.1303919399646,22.9610619760231));
#490=CARTESIAN_POINT('',(11.9186060294941,19.1803919399646,22.9610619760231));
#491=CARTESIAN_POINT('Origin',(11.9186060294941,12.1303919399646,22.9610619760231));
#492=CARTESIAN_POINT('Origin',(11.9186060294854,12.1303919399646,22.7610619760232));
#493=CARTESIAN_POINT('',(19.4186060294736,12.1303919399646,22.761061976018));
#494=CARTESIAN_POINT('Origin',(11.9186060294854,12.1303919399646,22.7610619760232));
#495=CARTESIAN_POINT('Origin',(11.9186060294764,12.1303919399646,9.96106197602322));
#496=CARTESIAN_POINT('',(19.4186060294736,12.1303919399646,9.96106197601797));
#497=CARTESIAN_POINT('Origin',(11.9186060294764,12.1303919399646,9.96106197602322));
#498=CARTESIAN_POINT('Origin',(11.9186060294764,12.1303919399646,9.96106197602322));
#499=CARTESIAN_POINT('',(18.9186060294736,12.1303919399646,9.46106197601797));
#500=CARTESIAN_POINT('Origin',(11.918606029476,12.1303919399646,9.46106197602287));
#501=CARTESIAN_POINT('Origin',(17.9186060294736,12.1303919399646,9.46106197601797));
#502=CARTESIAN_POINT('',(17.9186060294736,12.1303919399646,9.46106197601797));
#503=CARTESIAN_POINT('Origin',(11.918606029476,12.1303919399646,9.46106197602217));
#504=CARTESIAN_POINT('Origin',(11.9186060294739,12.1303919399646,6.46106197602219));
#505=CARTESIAN_POINT('',(17.9186060294736,12.1303919399646,6.46106197601799));
#506=CARTESIAN_POINT('Origin',(11.9186060294739,12.1303919399646,6.46106197602219));
#507=CARTESIAN_POINT('Origin',(11.9186060294739,12.1303919399646,6.46106197602219));
#508=CARTESIAN_POINT('',(17.4186060294736,12.1303919399646,5.96106197601799));
#509=CARTESIAN_POINT('Origin',(11.9186060294736,12.1303919399646,5.96106197602184));
#510=CARTESIAN_POINT('Origin',(11.9186060294736,12.1303919399646,5.96106197601799));
#511=CARTESIAN_POINT('Origin',(11.9186060294856,12.1303919399646,22.961061976023));
#512=CARTESIAN_POINT('',(18.7686060294856,12.1303919399646,22.6146518145093));
#513=CARTESIAN_POINT('Origin',(11.9186060294856,12.1303919399646,22.6146518145093));
#514=CARTESIAN_POINT('Origin',(11.9186060294856,12.1303919399646,19.761061976023));
#515=CARTESIAN_POINT('',(18.7686060294856,12.1303919399646,19.761061976023));
#516=CARTESIAN_POINT('Origin',(11.9186060294856,12.1303919399646,19.761061976023));
#517=CARTESIAN_POINT('Origin',(11.9186060294856,12.1303919399646,19.761061976023));
#518=CARTESIAN_POINT('',(18.4186060294856,12.1303919399646,19.411061976023));
#519=CARTESIAN_POINT('Origin',(11.9186060294856,12.1303919399646,19.411061976023));
#520=CARTESIAN_POINT('Origin',(11.9186060294856,12.1303919399646,11.961061976023));
#521=CARTESIAN_POINT('',(18.4186060294856,12.1303919399646,11.961061976023));
#522=CARTESIAN_POINT('Origin',(11.9186060294856,12.1303919399646,11.961061976023));
#523=CARTESIAN_POINT('Origin',(17.5186060294856,12.1303919399646,11.961061976023));
#524=CARTESIAN_POINT('',(17.5186060294856,12.1303919399646,11.961061976023));
#525=CARTESIAN_POINT('Origin',(11.9186060294856,12.1303919399646,11.961061976023));
#526=CARTESIAN_POINT('Origin',(11.9186060294856,12.1303919399646,11.961061976023));
#527=CARTESIAN_POINT('',(17.0186060294856,12.1303919399646,11.461061976023));
#528=CARTESIAN_POINT('Origin',(11.9186060294856,12.1303919399646,11.461061976023));
#529=CARTESIAN_POINT('Origin',(11.9186060294856,12.1303919399646,8.06106197602297));
#530=CARTESIAN_POINT('',(17.0186060294856,12.1303919399646,8.06106197602297));
#531=CARTESIAN_POINT('Origin',(11.9186060294856,12.1303919399646,8.06106197602297));
#532=CARTESIAN_POINT('Origin',(11.9186060294856,12.1303919399646,8.0610619760226));
#533=CARTESIAN_POINT('Origin',(4.4186060294855,12.1303919399646,23.9610619760231));
#534=CARTESIAN_POINT('',(4.4186060294855,12.1303919399646,23.9610619760231));
#535=CARTESIAN_POINT('Origin',(11.9186060294855,12.1303919399646,23.9610619760231));
#536=CARTESIAN_POINT('',(5.1186060294855,12.1303919399646,23.9610619760231));
#537=CARTESIAN_POINT('Origin',(11.9186060294855,12.1303919399646,23.9610619760231));
#538=CARTESIAN_POINT('Origin',(11.9186060294855,12.1303919399646,24.8299197835841));
#539=CARTESIAN_POINT('',(4.4186060294855,12.1303919399646,24.8299197835841));
#540=CARTESIAN_POINT('Origin',(11.9186060294855,12.1303919399646,24.8299197835841));
#541=CARTESIAN_POINT('Origin',(11.9186060294855,12.1303919399646,24.8299197835841));
#542=CARTESIAN_POINT('',(4.831781940652,12.1303919399646,25.3223236600901));
#543=CARTESIAN_POINT('Origin',(11.9186060294855,12.1303919399646,25.3223236600901));
#544=CARTESIAN_POINT('Origin',(11.9186060294855,12.1303919399646,25.3223236600901));
#545=CARTESIAN_POINT('',(5.6186060294855,12.1303919399646,25.4610619760231));
#546=CARTESIAN_POINT('Origin',(11.9186060294855,12.1303919399646,25.4610619760231));
#547=CARTESIAN_POINT('Origin',(6.8186060294855,12.1303919399646,25.4610619760231));
#548=CARTESIAN_POINT('',(17.5186060294855,12.1303919399646,25.4610619760231));
#549=CARTESIAN_POINT('Origin',(11.9186060294855,12.1303919399646,25.4610619760231));
#550=CARTESIAN_POINT('Origin',(11.9186060294855,12.1303919399646,25.4610619760231));
#551=CARTESIAN_POINT('',(17.0186060294855,12.1303919399646,24.9610619760231));
#552=CARTESIAN_POINT('Origin',(11.9186060294855,12.1303919399646,24.9610619760231));
#553=CARTESIAN_POINT('Origin',(11.9186060294855,12.1303919399646,15.3610619760231));
#554=CARTESIAN_POINT('',(6.8186060294855,12.1303919399646,15.3610619760231));
#555=CARTESIAN_POINT('Origin',(11.9186060294855,12.1303919399646,15.3610619760231));
#556=CARTESIAN_POINT('Origin',(6.76860602948549,12.1303919399646,15.3610619760231));
#557=CARTESIAN_POINT('',(6.76860602948549,12.1303919399646,15.3610619760231));
#558=CARTESIAN_POINT('Origin',(11.9186060294855,12.1303919399646,15.3610619760231));
#559=CARTESIAN_POINT('Origin',(11.9186060294855,12.1303919399646,17.0931127835921));
#560=CARTESIAN_POINT('',(5.7686060294855,12.1303919399646,17.0931127835921));
#561=CARTESIAN_POINT('Origin',(11.9186060294855,12.1303919399646,17.0931127835921));
#562=CARTESIAN_POINT('Origin',(11.9186060294855,12.1303919399646,20.4610619760231));
#563=CARTESIAN_POINT('',(5.7686060294855,12.1303919399646,20.4610619760231));
#564=CARTESIAN_POINT('Origin',(11.9186060294855,12.1303919399646,20.4610619760231));
#565=CARTESIAN_POINT('Origin',(11.9186060294855,12.1303919399646,21.1110619760231));
#566=CARTESIAN_POINT('',(5.1186060294855,12.1303919399646,21.1110619760231));
#567=CARTESIAN_POINT('Origin',(11.9186060294855,12.1303919399646,21.1110619760231));
#568=CARTESIAN_POINT('Origin',(11.9186060294855,12.1303919399646,23.9610619760231));
#569=UNCERTAINTY_MEASURE_WITH_UNIT(LENGTH_MEASURE(0.01),#573,
'DISTANCE_ACCURACY_VALUE',
'Maximum model space distance between geometric entities at asserted c
onnectivities');
#570=UNCERTAINTY_MEASURE_WITH_UNIT(LENGTH_MEASURE(1.E-6),#573,
'DISTANCE_ACCURACY_VALUE',
'Maximum model space distance between geometric entities at asserted c
onnectivities');
#571=(
GEOMETRIC_REPRESENTATION_CONTEXT(3)
GLOBAL_UNCERTAINTY_ASSIGNED_CONTEXT((#569))
GLOBAL_UNIT_ASSIGNED_CONTEXT((#573,#576,#574))
REPRESENTATION_CONTEXT('','3D')
);
#572=(
GEOMETRIC_REPRESENTATION_CONTEXT(3)
GLOBAL_UNCERTAINTY_ASSIGNED_CONTEXT((#570))
GLOBAL_UNIT_ASSIGNED_CONTEXT((#573,#576,#574))
REPRESENTATION_CONTEXT('','3D')
);
#573=(
LENGTH_UNIT()
NAMED_UNIT(*)
SI_UNIT(.MILLI.,.METRE.)
);
#574=(
NAMED_UNIT(*)
SI_UNIT($,.STERADIAN.)
SOLID_ANGLE_UNIT()
);
#575=DIMENSIONAL_EXPONENTS(0.,0.,0.,0.,0.,0.,0.);
#576=(
CONVERSION_BASED_UNIT('degree',#578)
NAMED_UNIT(#575)
PLANE_ANGLE_UNIT()
);
#577=(
NAMED_UNIT(*)
PLANE_ANGLE_UNIT()
SI_UNIT($,.RADIAN.)
);
#578=PLANE_ANGLE_MEASURE_WITH_UNIT(PLANE_ANGLE_MEASURE(0.01745329252),#577);
#579=SHAPE_DEFINITION_REPRESENTATION(#580,#581);
#580=PRODUCT_DEFINITION_SHAPE('',$,#583);
#581=SHAPE_REPRESENTATION('',(#318),#571);
#582=PRODUCT_DEFINITION_CONTEXT('part definition',#587,'design');
#583=PRODUCT_DEFINITION('iqsc_100_msv','iqsc_100_msv',#584,#582);
#584=PRODUCT_DEFINITION_FORMATION('',$,#589);
#585=PRODUCT_RELATED_PRODUCT_CATEGORY('iqsc_100_msv','iqsc_100_msv',(#589));
#586=APPLICATION_PROTOCOL_DEFINITION('international standard',
'automotive_design',2009,#587);
#587=APPLICATION_CONTEXT(
'Core Data for Automotive Mechanical Design Process');
#588=PRODUCT_CONTEXT('part definition',#587,'mechanical');
#589=PRODUCT('iqsc_100_msv','iqsc_100_msv',$,(#588));
#590=PRESENTATION_STYLE_ASSIGNMENT((#592));
#591=PRESENTATION_STYLE_ASSIGNMENT((#593));
#592=SURFACE_STYLE_USAGE(.BOTH.,#594);
#593=SURFACE_STYLE_USAGE(.BOTH.,#595);
#594=SURFACE_SIDE_STYLE($,(#596));
#595=SURFACE_SIDE_STYLE($,(#597));
#596=SURFACE_STYLE_FILL_AREA(#598);
#597=SURFACE_STYLE_FILL_AREA(#599);
#598=FILL_AREA_STYLE($,(#600));
#599=FILL_AREA_STYLE($,(#601));
#600=FILL_AREA_STYLE_COLOUR($,#602);
#601=FILL_AREA_STYLE_COLOUR($,#603);
#602=COLOUR_RGB('',0.749019607843137,0.749019607843137,0.749019607843137);
#603=COLOUR_RGB('',0.831372549019608,0.792156862745098,0.819607843137255);
ENDSEC;
END-ISO-10303-21;
