ISO-10303-21;
HEADER;
/* Generated by software containing ST-Developer
 * from STEP Tools, Inc. (www.steptools.com) 
 */

FILE_DESCRIPTION(
/* description */ (''),
/* implementation_level */ '2;1');

FILE_NAME(
/* name */ 'H:\\CAD\\neutral\\3d\\72013\\ffq_80_es.stp',
/* time_stamp */ '2017-12-18T14:16:42+01:00',
/* author */ ('leitheu\X\DFer'),
/* organization */ (''),
/* preprocessor_version */ 'ST-DEVELOPER v15.6',
/* originating_system */ 'Autodesk Inventor LT ',
/* authorisation */ '');

FILE_SCHEMA (('AUTOMOTIVE_DESIGN { 1 0 10303 214 3 1 1 }'));
ENDSEC;

DATA;
#10=MECHANICAL_DESIGN_GEOMETRIC_PRESENTATION_REPRESENTATION('',(#17,#16),
#311);
#11=DIMENSIONAL_EXPONENTS(0.,0.,0.,0.,0.,0.,0.);
#12=(
CONVERSION_BASED_UNIT('degree',#13)
NAMED_UNIT(#11)
PLANE_ANGLE_UNIT()
);
#13=PLANE_ANGLE_MEASURE_WITH_UNIT(PLANE_ANGLE_MEASURE(0.01745329252),#314);
#14=SHAPE_REPRESENTATION_RELATIONSHIP('SRR','None',#317,#15);
#15=ADVANCED_BREP_SHAPE_REPRESENTATION($,(#18,#19),#310);
#16=STYLED_ITEM('',(#326),#18);
#17=STYLED_ITEM('',(#326),#19);
#18=MANIFOLD_SOLID_BREP('1',#156);
#19=MANIFOLD_SOLID_BREP('2',#157);
#20=PLANE('',#174);
#21=PLANE('',#175);
#22=PLANE('',#176);
#23=PLANE('',#177);
#24=PLANE('',#178);
#25=PLANE('',#182);
#26=PLANE('',#183);
#27=CONICAL_SURFACE('',#161,9.5,0.785398163397448);
#28=CONICAL_SURFACE('',#169,10.,0.785398163397448);
#29=FACE_BOUND('',#65,.T.);
#30=FACE_BOUND('',#67,.T.);
#31=FACE_BOUND('',#69,.T.);
#32=FACE_BOUND('',#71,.T.);
#33=FACE_BOUND('',#73,.T.);
#34=FACE_BOUND('',#75,.T.);
#35=FACE_BOUND('',#76,.T.);
#36=FACE_BOUND('',#79,.T.);
#37=FACE_BOUND('',#81,.T.);
#38=FACE_BOUND('',#85,.T.);
#39=CIRCLE('',#160,2.);
#40=CIRCLE('',#162,9.5);
#41=CIRCLE('',#163,10.);
#42=CIRCLE('',#165,10.);
#43=CIRCLE('',#167,9.5);
#44=CIRCLE('',#168,9.5);
#45=CIRCLE('',#170,9.5);
#46=CIRCLE('',#171,10.);
#47=CIRCLE('',#173,10.);
#48=CIRCLE('',#180,2.);
#49=CIRCLE('',#181,2.);
#50=FACE_OUTER_BOUND('',#64,.T.);
#51=FACE_OUTER_BOUND('',#66,.T.);
#52=FACE_OUTER_BOUND('',#68,.T.);
#53=FACE_OUTER_BOUND('',#70,.T.);
#54=FACE_OUTER_BOUND('',#72,.T.);
#55=FACE_OUTER_BOUND('',#74,.T.);
#56=FACE_OUTER_BOUND('',#77,.T.);
#57=FACE_OUTER_BOUND('',#78,.T.);
#58=FACE_OUTER_BOUND('',#80,.T.);
#59=FACE_OUTER_BOUND('',#82,.T.);
#60=FACE_OUTER_BOUND('',#83,.T.);
#61=FACE_OUTER_BOUND('',#84,.T.);
#62=FACE_OUTER_BOUND('',#86,.T.);
#63=FACE_OUTER_BOUND('',#87,.T.);
#64=EDGE_LOOP('',(#113));
#65=EDGE_LOOP('',(#114));
#66=EDGE_LOOP('',(#115));
#67=EDGE_LOOP('',(#116));
#68=EDGE_LOOP('',(#117));
#69=EDGE_LOOP('',(#118));
#70=EDGE_LOOP('',(#119));
#71=EDGE_LOOP('',(#120));
#72=EDGE_LOOP('',(#121));
#73=EDGE_LOOP('',(#122));
#74=EDGE_LOOP('',(#123));
#75=EDGE_LOOP('',(#124));
#76=EDGE_LOOP('',(#125));
#77=EDGE_LOOP('',(#126));
#78=EDGE_LOOP('',(#127));
#79=EDGE_LOOP('',(#128));
#80=EDGE_LOOP('',(#129));
#81=EDGE_LOOP('',(#130));
#82=EDGE_LOOP('',(#131));
#83=EDGE_LOOP('',(#132));
#84=EDGE_LOOP('',(#133));
#85=EDGE_LOOP('',(#134));
#86=EDGE_LOOP('',(#135));
#87=EDGE_LOOP('',(#136));
#88=B_SPLINE_CURVE_WITH_KNOTS('',3,(#239,#240,#241,#242,#243,#244,#245,
#246,#247,#248,#249,#250,#251,#252,#253,#254,#255,#256,#257,#258,#259,#260,
#261,#262,#263,#264,#265,#266,#267,#268,#269,#270,#271,#272),
 .UNSPECIFIED.,.T.,.F.,(4,2,2,2,2,2,2,2,2,2,2,2,2,2,2,2,4),(-1.20891094744703,
-1.13335189626899,-1.05779284509095,-0.982238027838111,-0.906683210585272,
-0.831128393332432,-0.755573576079592,-0.680014524901553,-0.604455473723515,
-0.528896422545476,-0.453337371367437,-0.377782554114597,-0.302227736861757,
-0.226672919608918,-0.151118102356078,-0.0755590511780389,0.),
 .UNSPECIFIED.);
#89=VERTEX_POINT('',#238);
#90=VERTEX_POINT('',#273);
#91=VERTEX_POINT('',#276);
#92=VERTEX_POINT('',#278);
#93=VERTEX_POINT('',#281);
#94=VERTEX_POINT('',#284);
#95=VERTEX_POINT('',#286);
#96=VERTEX_POINT('',#289);
#97=VERTEX_POINT('',#291);
#98=VERTEX_POINT('',#294);
#99=VERTEX_POINT('',#302);
#100=VERTEX_POINT('',#304);
#101=EDGE_CURVE('',#89,#89,#88,.T.);
#102=EDGE_CURVE('',#90,#90,#39,.T.);
#103=EDGE_CURVE('',#91,#91,#40,.T.);
#104=EDGE_CURVE('',#92,#92,#41,.T.);
#105=EDGE_CURVE('',#93,#93,#42,.T.);
#106=EDGE_CURVE('',#94,#94,#43,.T.);
#107=EDGE_CURVE('',#95,#95,#44,.T.);
#108=EDGE_CURVE('',#96,#96,#45,.T.);
#109=EDGE_CURVE('',#97,#97,#46,.T.);
#110=EDGE_CURVE('',#98,#98,#47,.T.);
#111=EDGE_CURVE('',#99,#99,#48,.T.);
#112=EDGE_CURVE('',#100,#100,#49,.T.);
#113=ORIENTED_EDGE('',*,*,#101,.T.);
#114=ORIENTED_EDGE('',*,*,#102,.T.);
#115=ORIENTED_EDGE('',*,*,#103,.T.);
#116=ORIENTED_EDGE('',*,*,#104,.F.);
#117=ORIENTED_EDGE('',*,*,#104,.T.);
#118=ORIENTED_EDGE('',*,*,#105,.F.);
#119=ORIENTED_EDGE('',*,*,#106,.T.);
#120=ORIENTED_EDGE('',*,*,#107,.F.);
#121=ORIENTED_EDGE('',*,*,#108,.F.);
#122=ORIENTED_EDGE('',*,*,#109,.T.);
#123=ORIENTED_EDGE('',*,*,#110,.T.);
#124=ORIENTED_EDGE('',*,*,#109,.F.);
#125=ORIENTED_EDGE('',*,*,#101,.F.);
#126=ORIENTED_EDGE('',*,*,#108,.T.);
#127=ORIENTED_EDGE('',*,*,#110,.F.);
#128=ORIENTED_EDGE('',*,*,#107,.T.);
#129=ORIENTED_EDGE('',*,*,#105,.T.);
#130=ORIENTED_EDGE('',*,*,#106,.F.);
#131=ORIENTED_EDGE('',*,*,#103,.F.);
#132=ORIENTED_EDGE('',*,*,#102,.F.);
#133=ORIENTED_EDGE('',*,*,#111,.T.);
#134=ORIENTED_EDGE('',*,*,#112,.F.);
#135=ORIENTED_EDGE('',*,*,#111,.F.);
#136=ORIENTED_EDGE('',*,*,#112,.T.);
#137=CYLINDRICAL_SURFACE('',#159,2.);
#138=CYLINDRICAL_SURFACE('',#164,10.);
#139=CYLINDRICAL_SURFACE('',#166,9.5);
#140=CYLINDRICAL_SURFACE('',#172,10.);
#141=CYLINDRICAL_SURFACE('',#179,2.);
#142=ADVANCED_FACE('',(#50,#29),#137,.F.);
#143=ADVANCED_FACE('',(#51,#30),#27,.T.);
#144=ADVANCED_FACE('',(#52,#31),#138,.T.);
#145=ADVANCED_FACE('',(#53,#32),#139,.T.);
#146=ADVANCED_FACE('',(#54,#33),#28,.T.);
#147=ADVANCED_FACE('',(#55,#34,#35),#140,.T.);
#148=ADVANCED_FACE('',(#56),#20,.F.);
#149=ADVANCED_FACE('',(#57,#36),#21,.F.);
#150=ADVANCED_FACE('',(#58,#37),#22,.F.);
#151=ADVANCED_FACE('',(#59),#23,.F.);
#152=ADVANCED_FACE('',(#60),#24,.T.);
#153=ADVANCED_FACE('',(#61,#38),#141,.T.);
#154=ADVANCED_FACE('',(#62),#25,.F.);
#155=ADVANCED_FACE('',(#63),#26,.F.);
#156=CLOSED_SHELL('',(#142,#143,#144,#145,#146,#147,#148,#149,#150,#151,
#152));
#157=CLOSED_SHELL('',(#153,#154,#155));
#158=AXIS2_PLACEMENT_3D('placement',#236,#184,#185);
#159=AXIS2_PLACEMENT_3D('',#237,#186,#187);
#160=AXIS2_PLACEMENT_3D('',#274,#188,#189);
#161=AXIS2_PLACEMENT_3D('',#275,#190,#191);
#162=AXIS2_PLACEMENT_3D('',#277,#192,#193);
#163=AXIS2_PLACEMENT_3D('',#279,#194,#195);
#164=AXIS2_PLACEMENT_3D('',#280,#196,#197);
#165=AXIS2_PLACEMENT_3D('',#282,#198,#199);
#166=AXIS2_PLACEMENT_3D('',#283,#200,#201);
#167=AXIS2_PLACEMENT_3D('',#285,#202,#203);
#168=AXIS2_PLACEMENT_3D('',#287,#204,#205);
#169=AXIS2_PLACEMENT_3D('',#288,#206,#207);
#170=AXIS2_PLACEMENT_3D('',#290,#208,#209);
#171=AXIS2_PLACEMENT_3D('',#292,#210,#211);
#172=AXIS2_PLACEMENT_3D('',#293,#212,#213);
#173=AXIS2_PLACEMENT_3D('',#295,#214,#215);
#174=AXIS2_PLACEMENT_3D('',#296,#216,#217);
#175=AXIS2_PLACEMENT_3D('',#297,#218,#219);
#176=AXIS2_PLACEMENT_3D('',#298,#220,#221);
#177=AXIS2_PLACEMENT_3D('',#299,#222,#223);
#178=AXIS2_PLACEMENT_3D('',#300,#224,#225);
#179=AXIS2_PLACEMENT_3D('',#301,#226,#227);
#180=AXIS2_PLACEMENT_3D('',#303,#228,#229);
#181=AXIS2_PLACEMENT_3D('',#305,#230,#231);
#182=AXIS2_PLACEMENT_3D('',#306,#232,#233);
#183=AXIS2_PLACEMENT_3D('',#307,#234,#235);
#184=DIRECTION('axis',(0.,0.,1.));
#185=DIRECTION('refdir',(1.,0.,0.));
#186=DIRECTION('center_axis',(1.02053899928946E-17,-1.,0.));
#187=DIRECTION('ref_axis',(1.,1.02053899928946E-17,0.));
#188=DIRECTION('center_axis',(1.02053899928946E-17,-1.,0.));
#189=DIRECTION('ref_axis',(1.,1.02053899928946E-17,0.));
#190=DIRECTION('center_axis',(0.,-3.63638734585233E-18,1.));
#191=DIRECTION('ref_axis',(0.,-1.,-3.63638734585233E-18));
#192=DIRECTION('center_axis',(0.,-3.63638734585233E-18,1.));
#193=DIRECTION('ref_axis',(0.,-1.,-3.63638734585233E-18));
#194=DIRECTION('center_axis',(0.,-3.63638734585233E-18,1.));
#195=DIRECTION('ref_axis',(0.,-1.,-3.63638734585233E-18));
#196=DIRECTION('center_axis',(0.,-3.63638734585233E-18,1.));
#197=DIRECTION('ref_axis',(0.,-1.,-3.63638734585233E-18));
#198=DIRECTION('center_axis',(0.,-3.63638734585233E-18,1.));
#199=DIRECTION('ref_axis',(0.,-1.,-3.63638734585233E-18));
#200=DIRECTION('center_axis',(0.,-3.63638734585233E-18,1.));
#201=DIRECTION('ref_axis',(0.,-1.,-3.63638734585233E-18));
#202=DIRECTION('center_axis',(0.,-3.63638734585233E-18,1.));
#203=DIRECTION('ref_axis',(0.,-1.,-3.63638734585233E-18));
#204=DIRECTION('center_axis',(0.,-3.63638734585233E-18,1.));
#205=DIRECTION('ref_axis',(0.,-1.,-3.63638734585233E-18));
#206=DIRECTION('center_axis',(0.,3.63638734585233E-18,-1.));
#207=DIRECTION('ref_axis',(0.,1.,3.63638734585233E-18));
#208=DIRECTION('center_axis',(0.,-3.63638734585233E-18,1.));
#209=DIRECTION('ref_axis',(0.,-1.,-3.63638734585233E-18));
#210=DIRECTION('center_axis',(0.,-3.63638734585233E-18,1.));
#211=DIRECTION('ref_axis',(0.,-1.,-3.63638734585233E-18));
#212=DIRECTION('center_axis',(0.,-3.63638734585233E-18,1.));
#213=DIRECTION('ref_axis',(0.,-1.,-3.63638734585233E-18));
#214=DIRECTION('center_axis',(0.,-3.63638734585233E-18,1.));
#215=DIRECTION('ref_axis',(0.,-1.,-3.63638734585233E-18));
#216=DIRECTION('center_axis',(0.,3.63638734585233E-18,-1.));
#217=DIRECTION('ref_axis',(0.,1.,0.));
#218=DIRECTION('center_axis',(0.,-3.63638734585233E-18,1.));
#219=DIRECTION('ref_axis',(0.,-1.,0.));
#220=DIRECTION('center_axis',(0.,3.63638734585233E-18,-1.));
#221=DIRECTION('ref_axis',(0.,1.,0.));
#222=DIRECTION('center_axis',(0.,-3.63638734585233E-18,1.));
#223=DIRECTION('ref_axis',(0.,-1.,0.));
#224=DIRECTION('center_axis',(-1.02053899928946E-17,1.,0.));
#225=DIRECTION('ref_axis',(-1.,-1.02053899928946E-17,0.));
#226=DIRECTION('center_axis',(1.02053899928946E-17,-1.,0.));
#227=DIRECTION('ref_axis',(1.,1.02053899928946E-17,0.));
#228=DIRECTION('center_axis',(1.02053899928946E-17,-1.,0.));
#229=DIRECTION('ref_axis',(1.,1.02053899928946E-17,0.));
#230=DIRECTION('center_axis',(1.02053899928946E-17,-1.,0.));
#231=DIRECTION('ref_axis',(1.,1.02053899928946E-17,0.));
#232=DIRECTION('center_axis',(1.02053899928946E-17,-1.,0.));
#233=DIRECTION('ref_axis',(1.,0.,0.));
#234=DIRECTION('center_axis',(-1.02053899928946E-17,1.,0.));
#235=DIRECTION('ref_axis',(-1.,-1.02053899928946E-17,0.));
#236=CARTESIAN_POINT('',(0.,0.,0.));
#237=CARTESIAN_POINT('Origin',(0.,-10.,31.5));
#238=CARTESIAN_POINT('',(1.22462606377538E-15,10.,33.5));
#239=CARTESIAN_POINT('Ctrl Pts',(2.,9.79795897113271,31.5));
#240=CARTESIAN_POINT('Ctrl Pts',(2.,9.79795897113271,31.2481364960732));
#241=CARTESIAN_POINT('Ctrl Pts',(1.94952559249723,9.80867753236894,30.9799644456762));
#242=CARTESIAN_POINT('Ctrl Pts',(1.74521083529676,9.84708301585542,30.4874159899399));
#243=CARTESIAN_POINT('Ctrl Pts',(1.59140620438418,9.87418170203865,30.262979079638));
#244=CARTESIAN_POINT('Ctrl Pts',(1.23703084929019,9.92480675276637,29.908603724544));
#245=CARTESIAN_POINT('Ctrl Pts',(1.01258972239525,9.95166694303727,29.7547913169105));
#246=CARTESIAN_POINT('Ctrl Pts',(0.52002661216373,9.98952377294163,29.5504709155283));
#247=CARTESIAN_POINT('Ctrl Pts',(0.251849390842798,10.,29.5));
#248=CARTESIAN_POINT('Ctrl Pts',(-0.2518493908428,10.,29.5));
#249=CARTESIAN_POINT('Ctrl Pts',(-0.52002661216373,9.98952377294163,29.5504709155283));
#250=CARTESIAN_POINT('Ctrl Pts',(-1.01258972239525,9.95166694303727,29.7547913169105));
#251=CARTESIAN_POINT('Ctrl Pts',(-1.23703084929019,9.92480675276637,29.908603724544));
#252=CARTESIAN_POINT('Ctrl Pts',(-1.59140620438418,9.87418170203865,30.262979079638));
#253=CARTESIAN_POINT('Ctrl Pts',(-1.74521083529677,9.84708301585542,30.4874159899399));
#254=CARTESIAN_POINT('Ctrl Pts',(-1.94952559249723,9.80867753236894,30.9799644456762));
#255=CARTESIAN_POINT('Ctrl Pts',(-2.,9.79795897113271,31.2481364960732));
#256=CARTESIAN_POINT('Ctrl Pts',(-2.,9.79795897113271,31.7518635039268));
#257=CARTESIAN_POINT('Ctrl Pts',(-1.94952559249723,9.80867753236894,32.0200355543238));
#258=CARTESIAN_POINT('Ctrl Pts',(-1.74521083529676,9.84708301585542,32.5125840100601));
#259=CARTESIAN_POINT('Ctrl Pts',(-1.59140620438418,9.87418170203865,32.737020920362));
#260=CARTESIAN_POINT('Ctrl Pts',(-1.23703084929019,9.92480675276637,33.091396275456));
#261=CARTESIAN_POINT('Ctrl Pts',(-1.01258972239525,9.95166694303727,33.2452086830895));
#262=CARTESIAN_POINT('Ctrl Pts',(-0.52002661216373,9.98952377294163,33.4495290844717));
#263=CARTESIAN_POINT('Ctrl Pts',(-0.251849390842799,10.,33.5));
#264=CARTESIAN_POINT('Ctrl Pts',(0.251849390842799,10.,33.5));
#265=CARTESIAN_POINT('Ctrl Pts',(0.520026612163729,9.98952377294163,33.4495290844717));
#266=CARTESIAN_POINT('Ctrl Pts',(1.01258972239525,9.95166694303727,33.2452086830895));
#267=CARTESIAN_POINT('Ctrl Pts',(1.23703084929019,9.92480675276637,33.091396275456));
#268=CARTESIAN_POINT('Ctrl Pts',(1.59140620438418,9.87418170203865,32.737020920362));
#269=CARTESIAN_POINT('Ctrl Pts',(1.74521083529676,9.84708301585542,32.5125840100601));
#270=CARTESIAN_POINT('Ctrl Pts',(1.94952559249723,9.80867753236894,32.0200355543238));
#271=CARTESIAN_POINT('Ctrl Pts',(2.,9.79795897113271,31.7518635039268));
#272=CARTESIAN_POINT('Ctrl Pts',(2.,9.79795897113271,31.5));
#273=CARTESIAN_POINT('',(2.,2.04107799857892E-17,31.5));
#274=CARTESIAN_POINT('Origin',(-1.02053899928946E-16,0.,31.5));
#275=CARTESIAN_POINT('Origin',(0.,-2.10016873952053E-15,-37.5));
#276=CARTESIAN_POINT('',(0.,-9.50000000000001,-37.5));
#277=CARTESIAN_POINT('Origin',(0.,-2.10016873952053E-15,-37.5));
#278=CARTESIAN_POINT('',(0.,-10.,-37.));
#279=CARTESIAN_POINT('Origin',(0.,-2.10198693319346E-15,-37.));
#280=CARTESIAN_POINT('Origin',(0.,-2.37289779045945E-15,37.5));
#281=CARTESIAN_POINT('',(0.,-10.,-32.8));
#282=CARTESIAN_POINT('Origin',(0.,-2.11725976004603E-15,-32.8));
#283=CARTESIAN_POINT('Origin',(0.,-2.37289779045945E-15,37.5));
#284=CARTESIAN_POINT('',(0.,-9.5,-32.8));
#285=CARTESIAN_POINT('Origin',(0.,-2.11725976004603E-15,-32.8));
#286=CARTESIAN_POINT('',(0.,-9.5,-31.5));
#287=CARTESIAN_POINT('Origin',(0.,-2.12198706359564E-15,-31.5));
#288=CARTESIAN_POINT('Origin',(0.,-2.37107959678653E-15,37.));
#289=CARTESIAN_POINT('',(0.,9.5,37.5));
#290=CARTESIAN_POINT('Origin',(0.,-2.37289779045945E-15,37.5));
#291=CARTESIAN_POINT('',(1.22464679914735E-15,10.,37.));
#292=CARTESIAN_POINT('Origin',(0.,-2.37107959678653E-15,37.));
#293=CARTESIAN_POINT('Origin',(0.,-2.37289779045945E-15,37.5));
#294=CARTESIAN_POINT('',(0.,-10.,-31.5));
#295=CARTESIAN_POINT('Origin',(0.,-2.12198706359564E-15,-31.5));
#296=CARTESIAN_POINT('Origin',(0.,-2.37289779045945E-15,37.5));
#297=CARTESIAN_POINT('Origin',(0.,10.,-31.5));
#298=CARTESIAN_POINT('Origin',(0.,9.5,-32.8));
#299=CARTESIAN_POINT('Origin',(0.,9.5,-37.5));
#300=CARTESIAN_POINT('Origin',(-2.,5.04636101673106E-17,31.5));
#301=CARTESIAN_POINT('Origin',(0.,-10.,31.5));
#302=CARTESIAN_POINT('',(2.,14.,31.5));
#303=CARTESIAN_POINT('Origin',(-2.44929359829471E-16,14.,31.5));
#304=CARTESIAN_POINT('',(2.,2.04107799857892E-17,31.5));
#305=CARTESIAN_POINT('Origin',(-1.02053899928946E-16,0.,31.5));
#306=CARTESIAN_POINT('Origin',(-2.44929359829471E-16,14.,31.5));
#307=CARTESIAN_POINT('Origin',(-2.,5.04636101673106E-17,31.5));
#308=UNCERTAINTY_MEASURE_WITH_UNIT(LENGTH_MEASURE(0.01),#312,
'DISTANCE_ACCURACY_VALUE',
'Maximum model space distance between geometric entities at asserted c
onnectivities');
#309=UNCERTAINTY_MEASURE_WITH_UNIT(LENGTH_MEASURE(1.E-6),#312,
'DISTANCE_ACCURACY_VALUE',
'Maximum model space distance between geometric entities at asserted c
onnectivities');
#310=(
GEOMETRIC_REPRESENTATION_CONTEXT(3)
GLOBAL_UNCERTAINTY_ASSIGNED_CONTEXT((#308))
GLOBAL_UNIT_ASSIGNED_CONTEXT((#312,#314,#313))
REPRESENTATION_CONTEXT('','3D')
);
#311=(
GEOMETRIC_REPRESENTATION_CONTEXT(3)
GLOBAL_UNCERTAINTY_ASSIGNED_CONTEXT((#309))
GLOBAL_UNIT_ASSIGNED_CONTEXT((#312,#12,#313))
REPRESENTATION_CONTEXT('','3D')
);
#312=(
LENGTH_UNIT()
NAMED_UNIT(*)
SI_UNIT(.MILLI.,.METRE.)
);
#313=(
NAMED_UNIT(*)
SI_UNIT($,.STERADIAN.)
SOLID_ANGLE_UNIT()
);
#314=(
NAMED_UNIT(*)
PLANE_ANGLE_UNIT()
SI_UNIT($,.RADIAN.)
);
#315=SHAPE_DEFINITION_REPRESENTATION(#316,#317);
#316=PRODUCT_DEFINITION_SHAPE('',$,#319);
#317=SHAPE_REPRESENTATION('',(#158),#310);
#318=PRODUCT_DEFINITION_CONTEXT('part definition',#323,'design');
#319=PRODUCT_DEFINITION('IN12-80','IN12-80',#320,#318);
#320=PRODUCT_DEFINITION_FORMATION('',$,#325);
#321=PRODUCT_RELATED_PRODUCT_CATEGORY('IN12-80','IN12-80',(#325));
#322=APPLICATION_PROTOCOL_DEFINITION('international standard',
'automotive_design',2009,#323);
#323=APPLICATION_CONTEXT(
'Core Data for Automotive Mechanical Design Process');
#324=PRODUCT_CONTEXT('part definition',#323,'mechanical');
#325=PRODUCT('IN12-80','IN12-80',$,(#324));
#326=PRESENTATION_STYLE_ASSIGNMENT((#327));
#327=SURFACE_STYLE_USAGE(.BOTH.,#328);
#328=SURFACE_SIDE_STYLE($,(#329));
#329=SURFACE_STYLE_FILL_AREA(#330);
#330=FILL_AREA_STYLE($,(#331));
#331=FILL_AREA_STYLE_COLOUR($,#332);
#332=COLOUR_RGB('',0.749019607843137,0.749019607843137,0.749019607843137);
ENDSEC;
END-ISO-10303-21;
