ISO-10303-21;
HEADER;
/* Generated by software containing ST-Developer
 * from STEP Tools, Inc. (www.steptools.com) 
 */

FILE_DESCRIPTION(
/* description */ (''),
/* implementation_level */ '2;1');

FILE_NAME(
/* name */ 'H:\\cad\\neutral\\3d\\73328\\sd_38.stp',
/* time_stamp */ '2017-08-04T14:50:11+02:00',
/* author */ ('Hamoud'),
/* organization */ (''),
/* preprocessor_version */ 'ST-DEVELOPER v15.6',
/* originating_system */ 'Autodesk Inventor LT ',
/* authorisation */ '');

FILE_SCHEMA (('AUTOMOTIVE_DESIGN { 1 0 10303 214 3 1 1 }'));
ENDSEC;

DATA;
#10=MECHANICAL_DESIGN_GEOMETRIC_PRESENTATION_REPRESENTATION('',(#13),#315);
#11=SHAPE_REPRESENTATION_RELATIONSHIP('SRR','None',#324,#12);
#12=ADVANCED_BREP_SHAPE_REPRESENTATION($,(#14),#314);
#13=STYLED_ITEM('',(#333),#14);
#14=MANIFOLD_SOLID_BREP('Volumenk\X\F6rper1',#180);
#15=LINE('',#279,#23);
#16=LINE('',#281,#24);
#17=LINE('',#283,#25);
#18=LINE('',#284,#26);
#19=LINE('',#288,#27);
#20=LINE('',#290,#28);
#21=LINE('',#292,#29);
#22=LINE('',#293,#30);
#23=VECTOR('',#224,2.00366076375579);
#24=VECTOR('',#225,15.1081964509335);
#25=VECTOR('',#226,2.00366076375579);
#26=VECTOR('',#227,14.8660687473185);
#27=VECTOR('',#230,2.00366076375579);
#28=VECTOR('',#231,15.1081964509335);
#29=VECTOR('',#232,2.00366076375579);
#30=VECTOR('',#233,14.8660687473185);
#31=CYLINDRICAL_SURFACE('',#187,8.35);
#32=CYLINDRICAL_SURFACE('',#205,5.);
#33=PLANE('',#185);
#34=PLANE('',#189);
#35=PLANE('',#190);
#36=PLANE('',#191);
#37=PLANE('',#193);
#38=PLANE('',#195);
#39=PLANE('',#200);
#40=PLANE('',#201);
#41=FACE_BOUND('',#62,.T.);
#42=FACE_BOUND('',#64,.T.);
#43=FACE_BOUND('',#66,.T.);
#44=FACE_BOUND('',#72,.T.);
#45=FACE_BOUND('',#74,.T.);
#46=FACE_BOUND('',#78,.T.);
#47=FACE_BOUND('',#80,.T.);
#48=FACE_OUTER_BOUND('',#61,.T.);
#49=FACE_OUTER_BOUND('',#63,.T.);
#50=FACE_OUTER_BOUND('',#65,.T.);
#51=FACE_OUTER_BOUND('',#67,.T.);
#52=FACE_OUTER_BOUND('',#68,.T.);
#53=FACE_OUTER_BOUND('',#69,.T.);
#54=FACE_OUTER_BOUND('',#70,.T.);
#55=FACE_OUTER_BOUND('',#71,.T.);
#56=FACE_OUTER_BOUND('',#73,.T.);
#57=FACE_OUTER_BOUND('',#75,.T.);
#58=FACE_OUTER_BOUND('',#76,.T.);
#59=FACE_OUTER_BOUND('',#77,.T.);
#60=FACE_OUTER_BOUND('',#79,.T.);
#61=EDGE_LOOP('',(#126));
#62=EDGE_LOOP('',(#127));
#63=EDGE_LOOP('',(#128));
#64=EDGE_LOOP('',(#129));
#65=EDGE_LOOP('',(#130));
#66=EDGE_LOOP('',(#131));
#67=EDGE_LOOP('',(#132,#133,#134,#135));
#68=EDGE_LOOP('',(#136,#137,#138,#139));
#69=EDGE_LOOP('',(#140,#141));
#70=EDGE_LOOP('',(#142,#143));
#71=EDGE_LOOP('',(#144));
#72=EDGE_LOOP('',(#145));
#73=EDGE_LOOP('',(#146,#147,#148,#149,#150,#151,#152,#153));
#74=EDGE_LOOP('',(#154));
#75=EDGE_LOOP('',(#155,#156,#157,#158));
#76=EDGE_LOOP('',(#159));
#77=EDGE_LOOP('',(#160));
#78=EDGE_LOOP('',(#161));
#79=EDGE_LOOP('',(#162));
#80=EDGE_LOOP('',(#163));
#81=CIRCLE('',#183,7.85);
#82=CIRCLE('',#184,8.35);
#83=CIRCLE('',#186,5.);
#84=CIRCLE('',#188,8.35);
#85=CIRCLE('',#192,7.5);
#86=CIRCLE('',#194,7.5);
#87=CIRCLE('',#196,9.);
#88=CIRCLE('',#198,7.62);
#89=CIRCLE('',#199,7.62);
#90=CIRCLE('',#202,3.4);
#91=CIRCLE('',#204,5.);
#92=VERTEX_POINT('',#266);
#93=VERTEX_POINT('',#268);
#94=VERTEX_POINT('',#271);
#95=VERTEX_POINT('',#274);
#96=VERTEX_POINT('',#277);
#97=VERTEX_POINT('',#278);
#98=VERTEX_POINT('',#280);
#99=VERTEX_POINT('',#282);
#100=VERTEX_POINT('',#286);
#101=VERTEX_POINT('',#287);
#102=VERTEX_POINT('',#289);
#103=VERTEX_POINT('',#291);
#104=VERTEX_POINT('',#299);
#105=VERTEX_POINT('',#306);
#106=VERTEX_POINT('',#309);
#107=EDGE_CURVE('',#92,#92,#81,.T.);
#108=EDGE_CURVE('',#93,#93,#82,.T.);
#109=EDGE_CURVE('',#94,#94,#83,.T.);
#110=EDGE_CURVE('',#95,#95,#84,.T.);
#111=EDGE_CURVE('',#96,#97,#15,.T.);
#112=EDGE_CURVE('',#98,#96,#16,.T.);
#113=EDGE_CURVE('',#99,#98,#17,.T.);
#114=EDGE_CURVE('',#97,#99,#18,.T.);
#115=EDGE_CURVE('',#100,#101,#19,.T.);
#116=EDGE_CURVE('',#100,#102,#20,.T.);
#117=EDGE_CURVE('',#103,#102,#21,.T.);
#118=EDGE_CURVE('',#101,#103,#22,.T.);
#119=EDGE_CURVE('',#99,#97,#85,.T.);
#120=EDGE_CURVE('',#103,#101,#86,.T.);
#121=EDGE_CURVE('',#104,#104,#87,.T.);
#122=EDGE_CURVE('',#102,#96,#88,.T.);
#123=EDGE_CURVE('',#98,#100,#89,.T.);
#124=EDGE_CURVE('',#105,#105,#90,.T.);
#125=EDGE_CURVE('',#106,#106,#91,.T.);
#126=ORIENTED_EDGE('',*,*,#107,.T.);
#127=ORIENTED_EDGE('',*,*,#108,.T.);
#128=ORIENTED_EDGE('',*,*,#107,.F.);
#129=ORIENTED_EDGE('',*,*,#109,.T.);
#130=ORIENTED_EDGE('',*,*,#110,.F.);
#131=ORIENTED_EDGE('',*,*,#108,.F.);
#132=ORIENTED_EDGE('',*,*,#111,.F.);
#133=ORIENTED_EDGE('',*,*,#112,.F.);
#134=ORIENTED_EDGE('',*,*,#113,.F.);
#135=ORIENTED_EDGE('',*,*,#114,.F.);
#136=ORIENTED_EDGE('',*,*,#115,.F.);
#137=ORIENTED_EDGE('',*,*,#116,.T.);
#138=ORIENTED_EDGE('',*,*,#117,.F.);
#139=ORIENTED_EDGE('',*,*,#118,.F.);
#140=ORIENTED_EDGE('',*,*,#114,.T.);
#141=ORIENTED_EDGE('',*,*,#119,.T.);
#142=ORIENTED_EDGE('',*,*,#118,.T.);
#143=ORIENTED_EDGE('',*,*,#120,.T.);
#144=ORIENTED_EDGE('',*,*,#121,.F.);
#145=ORIENTED_EDGE('',*,*,#110,.T.);
#146=ORIENTED_EDGE('',*,*,#115,.T.);
#147=ORIENTED_EDGE('',*,*,#120,.F.);
#148=ORIENTED_EDGE('',*,*,#117,.T.);
#149=ORIENTED_EDGE('',*,*,#122,.T.);
#150=ORIENTED_EDGE('',*,*,#111,.T.);
#151=ORIENTED_EDGE('',*,*,#119,.F.);
#152=ORIENTED_EDGE('',*,*,#113,.T.);
#153=ORIENTED_EDGE('',*,*,#123,.T.);
#154=ORIENTED_EDGE('',*,*,#121,.T.);
#155=ORIENTED_EDGE('',*,*,#112,.T.);
#156=ORIENTED_EDGE('',*,*,#122,.F.);
#157=ORIENTED_EDGE('',*,*,#116,.F.);
#158=ORIENTED_EDGE('',*,*,#123,.F.);
#159=ORIENTED_EDGE('',*,*,#124,.F.);
#160=ORIENTED_EDGE('',*,*,#125,.F.);
#161=ORIENTED_EDGE('',*,*,#124,.T.);
#162=ORIENTED_EDGE('',*,*,#109,.F.);
#163=ORIENTED_EDGE('',*,*,#125,.T.);
#164=CONICAL_SURFACE('',#182,8.1,45.0000000000001);
#165=CONICAL_SURFACE('',#197,8.25,3.43363036245052);
#166=CONICAL_SURFACE('',#203,4.2,4.81355089370653);
#167=ADVANCED_FACE('',(#48,#41),#164,.T.);
#168=ADVANCED_FACE('',(#49,#42),#33,.T.);
#169=ADVANCED_FACE('',(#50,#43),#31,.T.);
#170=ADVANCED_FACE('',(#51),#34,.F.);
#171=ADVANCED_FACE('',(#52),#35,.F.);
#172=ADVANCED_FACE('',(#53),#36,.T.);
#173=ADVANCED_FACE('',(#54),#37,.T.);
#174=ADVANCED_FACE('',(#55,#44),#38,.T.);
#175=ADVANCED_FACE('',(#56,#45),#165,.T.);
#176=ADVANCED_FACE('',(#57),#39,.T.);
#177=ADVANCED_FACE('',(#58),#40,.T.);
#178=ADVANCED_FACE('',(#59,#46),#166,.F.);
#179=ADVANCED_FACE('',(#60,#47),#32,.F.);
#180=CLOSED_SHELL('',(#167,#168,#169,#170,#171,#172,#173,#174,#175,#176,
#177,#178,#179));
#181=AXIS2_PLACEMENT_3D('placement',#264,#206,#207);
#182=AXIS2_PLACEMENT_3D('',#265,#208,#209);
#183=AXIS2_PLACEMENT_3D('',#267,#210,#211);
#184=AXIS2_PLACEMENT_3D('',#269,#212,#213);
#185=AXIS2_PLACEMENT_3D('',#270,#214,#215);
#186=AXIS2_PLACEMENT_3D('',#272,#216,#217);
#187=AXIS2_PLACEMENT_3D('',#273,#218,#219);
#188=AXIS2_PLACEMENT_3D('',#275,#220,#221);
#189=AXIS2_PLACEMENT_3D('',#276,#222,#223);
#190=AXIS2_PLACEMENT_3D('',#285,#228,#229);
#191=AXIS2_PLACEMENT_3D('',#294,#234,#235);
#192=AXIS2_PLACEMENT_3D('',#295,#236,#237);
#193=AXIS2_PLACEMENT_3D('',#296,#238,#239);
#194=AXIS2_PLACEMENT_3D('',#297,#240,#241);
#195=AXIS2_PLACEMENT_3D('',#298,#242,#243);
#196=AXIS2_PLACEMENT_3D('',#300,#244,#245);
#197=AXIS2_PLACEMENT_3D('',#301,#246,#247);
#198=AXIS2_PLACEMENT_3D('',#302,#248,#249);
#199=AXIS2_PLACEMENT_3D('',#303,#250,#251);
#200=AXIS2_PLACEMENT_3D('',#304,#252,#253);
#201=AXIS2_PLACEMENT_3D('',#305,#254,#255);
#202=AXIS2_PLACEMENT_3D('',#307,#256,#257);
#203=AXIS2_PLACEMENT_3D('',#308,#258,#259);
#204=AXIS2_PLACEMENT_3D('',#310,#260,#261);
#205=AXIS2_PLACEMENT_3D('',#311,#262,#263);
#206=DIRECTION('axis',(0.,0.,1.));
#207=DIRECTION('refdir',(1.,0.,0.));
#208=DIRECTION('center_axis',(0.,1.,0.));
#209=DIRECTION('ref_axis',(0.,0.,-1.));
#210=DIRECTION('center_axis',(0.,1.,0.));
#211=DIRECTION('ref_axis',(0.,0.,-1.));
#212=DIRECTION('center_axis',(0.,-1.,0.));
#213=DIRECTION('ref_axis',(0.,0.,-1.));
#214=DIRECTION('center_axis',(0.,-1.,0.));
#215=DIRECTION('ref_axis',(0.,0.,-1.));
#216=DIRECTION('center_axis',(0.,1.,0.));
#217=DIRECTION('ref_axis',(1.,0.,0.));
#218=DIRECTION('center_axis',(0.,1.,0.));
#219=DIRECTION('ref_axis',(0.,0.,1.));
#220=DIRECTION('center_axis',(0.,1.,0.));
#221=DIRECTION('ref_axis',(1.,0.,0.));
#222=DIRECTION('center_axis',(1.,0.,0.));
#223=DIRECTION('ref_axis',(0.,1.,0.));
#224=DIRECTION('',(-6.92621628314018E-17,0.998172962298799,0.0604213317929996));
#225=DIRECTION('',(0.,0.,-1.));
#226=DIRECTION('',(6.92621628314018E-17,-0.998172962298799,0.0604213317929996));
#227=DIRECTION('',(0.,0.,1.));
#228=DIRECTION('center_axis',(-1.,-1.38777878078145E-16,0.));
#229=DIRECTION('ref_axis',(1.33226762955019E-16,-1.,0.));
#230=DIRECTION('',(-6.92621628314018E-17,0.998172962298799,-0.0604213317929996));
#231=DIRECTION('',(0.,0.,-1.));
#232=DIRECTION('',(6.92621628314018E-17,-0.998172962298799,-0.0604213317929996));
#233=DIRECTION('',(0.,0.,-1.));
#234=DIRECTION('center_axis',(0.,1.,0.));
#235=DIRECTION('ref_axis',(0.,0.,1.));
#236=DIRECTION('center_axis',(0.,1.,0.));
#237=DIRECTION('ref_axis',(1.,0.,0.));
#238=DIRECTION('center_axis',(0.,1.,0.));
#239=DIRECTION('ref_axis',(0.,0.,1.));
#240=DIRECTION('center_axis',(0.,1.,0.));
#241=DIRECTION('ref_axis',(1.,0.,0.));
#242=DIRECTION('center_axis',(0.,-1.,0.));
#243=DIRECTION('ref_axis',(0.,0.,-1.));
#244=DIRECTION('center_axis',(0.,1.,0.));
#245=DIRECTION('ref_axis',(1.,0.,0.));
#246=DIRECTION('center_axis',(0.,-1.,0.));
#247=DIRECTION('ref_axis',(0.,0.,1.));
#248=DIRECTION('center_axis',(0.,-1.,0.));
#249=DIRECTION('ref_axis',(0.,0.,1.));
#250=DIRECTION('center_axis',(0.,-1.,0.));
#251=DIRECTION('ref_axis',(0.,0.,1.));
#252=DIRECTION('center_axis',(0.,1.,0.));
#253=DIRECTION('ref_axis',(0.,0.,1.));
#254=DIRECTION('center_axis',(0.,-1.,0.));
#255=DIRECTION('ref_axis',(0.,0.,-1.));
#256=DIRECTION('center_axis',(0.,1.,0.));
#257=DIRECTION('ref_axis',(1.,0.,0.));
#258=DIRECTION('center_axis',(0.,-1.,0.));
#259=DIRECTION('ref_axis',(0.,0.,1.));
#260=DIRECTION('center_axis',(0.,1.,0.));
#261=DIRECTION('ref_axis',(1.,0.,0.));
#262=DIRECTION('center_axis',(0.,1.,0.));
#263=DIRECTION('ref_axis',(0.,0.,1.));
#264=CARTESIAN_POINT('',(0.,0.,0.));
#265=CARTESIAN_POINT('Origin',(0.,0.249999999999998,0.));
#266=CARTESIAN_POINT('',(9.61347737330672E-16,-1.38777878078145E-15,7.85));
#267=CARTESIAN_POINT('Origin',(0.,-1.38777878078145E-15,0.));
#268=CARTESIAN_POINT('',(-1.02258007728804E-15,0.499999999999998,8.35));
#269=CARTESIAN_POINT('Origin',(0.,0.499999999999998,0.));
#270=CARTESIAN_POINT('Origin',(0.,-1.38972335871137E-15,8.35));
#271=CARTESIAN_POINT('',(0.,0.,5.));
#272=CARTESIAN_POINT('Origin',(0.,0.,0.));
#273=CARTESIAN_POINT('Origin',(0.,5.5,0.));
#274=CARTESIAN_POINT('',(0.,11.,8.35));
#275=CARTESIAN_POINT('Origin',(0.,11.,0.));
#276=CARTESIAN_POINT('Origin',(1.,34.,0.));
#277=CARTESIAN_POINT('',(1.,34.,-7.55409822546676));
#278=CARTESIAN_POINT('',(1.,36.,-7.43303437365925));
#279=CARTESIAN_POINT('',(1.,35.,-7.493566299563));
#280=CARTESIAN_POINT('',(1.,34.,7.55409822546676));
#281=CARTESIAN_POINT('',(1.,34.,0.));
#282=CARTESIAN_POINT('',(1.,36.,7.43303437365925));
#283=CARTESIAN_POINT('',(1.,35.,7.493566299563));
#284=CARTESIAN_POINT('',(1.,36.,0.500000000000002));
#285=CARTESIAN_POINT('Origin',(-1.,36.,0.));
#286=CARTESIAN_POINT('',(-1.,34.,7.55409822546676));
#287=CARTESIAN_POINT('',(-1.,36.,7.43303437365925));
#288=CARTESIAN_POINT('',(-1.,35.,7.493566299563));
#289=CARTESIAN_POINT('',(-1.,34.,-7.55409822546676));
#290=CARTESIAN_POINT('',(-1.,34.,0.));
#291=CARTESIAN_POINT('',(-1.,36.,-7.43303437365925));
#292=CARTESIAN_POINT('',(-1.,35.,-7.493566299563));
#293=CARTESIAN_POINT('',(-1.,36.,0.500000000000002));
#294=CARTESIAN_POINT('Origin',(0.,36.,1.));
#295=CARTESIAN_POINT('Origin',(0.,36.,0.));
#296=CARTESIAN_POINT('Origin',(0.,36.,1.));
#297=CARTESIAN_POINT('Origin',(0.,36.,0.));
#298=CARTESIAN_POINT('Origin',(0.,11.,9.));
#299=CARTESIAN_POINT('',(0.,11.,9.));
#300=CARTESIAN_POINT('Origin',(0.,11.,0.));
#301=CARTESIAN_POINT('Origin',(0.,23.5,0.));
#302=CARTESIAN_POINT('Origin',(0.,34.,0.));
#303=CARTESIAN_POINT('Origin',(0.,34.,0.));
#304=CARTESIAN_POINT('Origin',(0.,34.,0.));
#305=CARTESIAN_POINT('Origin',(0.,30.,3.4));
#306=CARTESIAN_POINT('',(0.,30.,3.4));
#307=CARTESIAN_POINT('Origin',(0.,30.,0.));
#308=CARTESIAN_POINT('Origin',(0.,20.5,0.));
#309=CARTESIAN_POINT('',(0.,11.,5.));
#310=CARTESIAN_POINT('Origin',(0.,11.,0.));
#311=CARTESIAN_POINT('Origin',(0.,5.5,0.));
#312=UNCERTAINTY_MEASURE_WITH_UNIT(LENGTH_MEASURE(0.01),#316,
'DISTANCE_ACCURACY_VALUE',
'Maximum model space distance between geometric entities at asserted c
onnectivities');
#313=UNCERTAINTY_MEASURE_WITH_UNIT(LENGTH_MEASURE(1.E-6),#316,
'DISTANCE_ACCURACY_VALUE',
'Maximum model space distance between geometric entities at asserted c
onnectivities');
#314=(
GEOMETRIC_REPRESENTATION_CONTEXT(3)
GLOBAL_UNCERTAINTY_ASSIGNED_CONTEXT((#312))
GLOBAL_UNIT_ASSIGNED_CONTEXT((#316,#319,#317))
REPRESENTATION_CONTEXT('','3D')
);
#315=(
GEOMETRIC_REPRESENTATION_CONTEXT(3)
GLOBAL_UNCERTAINTY_ASSIGNED_CONTEXT((#313))
GLOBAL_UNIT_ASSIGNED_CONTEXT((#316,#319,#317))
REPRESENTATION_CONTEXT('','3D')
);
#316=(
LENGTH_UNIT()
NAMED_UNIT(*)
SI_UNIT(.MILLI.,.METRE.)
);
#317=(
NAMED_UNIT(*)
SI_UNIT($,.STERADIAN.)
SOLID_ANGLE_UNIT()
);
#318=DIMENSIONAL_EXPONENTS(0.,0.,0.,0.,0.,0.,0.);
#319=(
CONVERSION_BASED_UNIT('degree',#321)
NAMED_UNIT(#318)
PLANE_ANGLE_UNIT()
);
#320=(
NAMED_UNIT(*)
PLANE_ANGLE_UNIT()
SI_UNIT($,.RADIAN.)
);
#321=PLANE_ANGLE_MEASURE_WITH_UNIT(PLANE_ANGLE_MEASURE(0.01745329252),#320);
#322=SHAPE_DEFINITION_REPRESENTATION(#323,#324);
#323=PRODUCT_DEFINITION_SHAPE('',$,#326);
#324=SHAPE_REPRESENTATION('',(#181),#314);
#325=PRODUCT_DEFINITION_CONTEXT('part definition',#330,'design');
#326=PRODUCT_DEFINITION('sd_38','sd_38',#327,#325);
#327=PRODUCT_DEFINITION_FORMATION('',$,#332);
#328=PRODUCT_RELATED_PRODUCT_CATEGORY('sd_38','sd_38',(#332));
#329=APPLICATION_PROTOCOL_DEFINITION('international standard',
'automotive_design',2009,#330);
#330=APPLICATION_CONTEXT(
'Core Data for Automotive Mechanical Design Process');
#331=PRODUCT_CONTEXT('part definition',#330,'mechanical');
#332=PRODUCT('sd_38','sd_38',$,(#331));
#333=PRESENTATION_STYLE_ASSIGNMENT((#334));
#334=SURFACE_STYLE_USAGE(.BOTH.,#335);
#335=SURFACE_SIDE_STYLE($,(#336));
#336=SURFACE_STYLE_FILL_AREA(#337);
#337=FILL_AREA_STYLE($,(#338));
#338=FILL_AREA_STYLE_COLOUR($,#339);
#339=COLOUR_RGB('',0.749019607843137,0.749019607843137,0.749019607843137);
ENDSEC;
END-ISO-10303-21;
