ISO-10303-21;
HEADER;
/* Generated by software containing ST-Developer
 * from STEP Tools, Inc. (www.steptools.com) 
 */

FILE_DESCRIPTION(
/* description */ (''),
/* implementation_level */ '2;1');

FILE_NAME(
/* name */ 'H:\\CAD\\neutral\\3d\\72333\\rle2_3814_a.stp',
/* time_stamp */ '2018-04-12T09:36:36+02:00',
/* author */ ('leitheu\X\DFer'),
/* organization */ (''),
/* preprocessor_version */ 'ST-DEVELOPER v15.6',
/* originating_system */ 'Autodesk Inventor LT ',
/* authorisation */ '');

FILE_SCHEMA (('AUTOMOTIVE_DESIGN { 1 0 10303 214 3 1 1 }'));
ENDSEC;

DATA;
#10=MECHANICAL_DESIGN_GEOMETRIC_PRESENTATION_REPRESENTATION('',(#16),#532);
#11=DIMENSIONAL_EXPONENTS(0.,0.,0.,0.,0.,0.,0.);
#12=(
CONVERSION_BASED_UNIT('degree',#13)
NAMED_UNIT(#11)
PLANE_ANGLE_UNIT()
);
#13=PLANE_ANGLE_MEASURE_WITH_UNIT(PLANE_ANGLE_MEASURE(0.01745329252),#535);
#14=SHAPE_REPRESENTATION_RELATIONSHIP('SRR','None',#538,#15);
#15=ADVANCED_BREP_SHAPE_REPRESENTATION($,(#17),#531);
#16=STYLED_ITEM('',(#547),#17);
#17=MANIFOLD_SOLID_BREP('1',#254);
#18=LINE('',#506,#30);
#19=LINE('',#508,#31);
#20=LINE('',#510,#32);
#21=LINE('',#511,#33);
#22=LINE('',#514,#34);
#23=LINE('',#516,#35);
#24=LINE('',#517,#36);
#25=LINE('',#520,#37);
#26=LINE('',#522,#38);
#27=LINE('',#523,#39);
#28=LINE('',#525,#40);
#29=LINE('',#526,#41);
#30=VECTOR('',#329,40.);
#31=VECTOR('',#330,72.);
#32=VECTOR('',#331,40.);
#33=VECTOR('',#332,72.);
#34=VECTOR('',#335,20.);
#35=VECTOR('',#336,72.);
#36=VECTOR('',#337,20.);
#37=VECTOR('',#340,40.);
#38=VECTOR('',#341,72.);
#39=VECTOR('',#342,40.);
#40=VECTOR('',#345,20.);
#41=VECTOR('',#346,20.);
#42=PLANE('',#277);
#43=PLANE('',#278);
#44=PLANE('',#279);
#45=PLANE('',#280);
#46=PLANE('',#281);
#47=PLANE('',#282);
#48=CONICAL_SURFACE('',#269,7.475,1.02974425867665);
#49=CONICAL_SURFACE('',#274,7.475,1.02974425867665);
#50=FACE_BOUND('',#97,.T.);
#51=FACE_BOUND('',#99,.T.);
#52=FACE_BOUND('',#101,.T.);
#53=FACE_BOUND('',#103,.T.);
#54=FACE_BOUND('',#105,.T.);
#55=FACE_BOUND('',#107,.T.);
#56=FACE_BOUND('',#109,.T.);
#57=FACE_BOUND('',#111,.T.);
#58=FACE_BOUND('',#113,.T.);
#59=FACE_BOUND('',#114,.T.);
#60=FACE_BOUND('',#115,.T.);
#61=FACE_BOUND('',#117,.T.);
#62=FACE_BOUND('',#118,.T.);
#63=FACE_BOUND('',#120,.T.);
#64=FACE_BOUND('',#121,.T.);
#65=FACE_BOUND('',#123,.T.);
#66=FACE_BOUND('',#124,.T.);
#67=FACE_BOUND('',#127,.T.);
#68=FACE_BOUND('',#129,.T.);
#69=CIRCLE('',#257,5.7225);
#70=CIRCLE('',#259,5.7225);
#71=CIRCLE('',#261,3.25);
#72=CIRCLE('',#262,3.25);
#73=CIRCLE('',#264,3.25);
#74=CIRCLE('',#265,3.25);
#75=CIRCLE('',#267,7.475);
#76=CIRCLE('',#268,7.475);
#77=CIRCLE('',#270,6.);
#78=CIRCLE('',#272,7.475);
#79=CIRCLE('',#273,7.475);
#80=CIRCLE('',#275,6.);
#81=FACE_OUTER_BOUND('',#96,.T.);
#82=FACE_OUTER_BOUND('',#98,.T.);
#83=FACE_OUTER_BOUND('',#100,.T.);
#84=FACE_OUTER_BOUND('',#102,.T.);
#85=FACE_OUTER_BOUND('',#104,.T.);
#86=FACE_OUTER_BOUND('',#106,.T.);
#87=FACE_OUTER_BOUND('',#108,.T.);
#88=FACE_OUTER_BOUND('',#110,.T.);
#89=FACE_OUTER_BOUND('',#112,.T.);
#90=FACE_OUTER_BOUND('',#116,.T.);
#91=FACE_OUTER_BOUND('',#119,.T.);
#92=FACE_OUTER_BOUND('',#122,.T.);
#93=FACE_OUTER_BOUND('',#125,.T.);
#94=FACE_OUTER_BOUND('',#126,.T.);
#95=FACE_OUTER_BOUND('',#128,.T.);
#96=EDGE_LOOP('',(#180));
#97=EDGE_LOOP('',(#181));
#98=EDGE_LOOP('',(#182));
#99=EDGE_LOOP('',(#183));
#100=EDGE_LOOP('',(#184));
#101=EDGE_LOOP('',(#185));
#102=EDGE_LOOP('',(#186));
#103=EDGE_LOOP('',(#187));
#104=EDGE_LOOP('',(#188));
#105=EDGE_LOOP('',(#189));
#106=EDGE_LOOP('',(#190));
#107=EDGE_LOOP('',(#191));
#108=EDGE_LOOP('',(#192));
#109=EDGE_LOOP('',(#193));
#110=EDGE_LOOP('',(#194));
#111=EDGE_LOOP('',(#195));
#112=EDGE_LOOP('',(#196));
#113=EDGE_LOOP('',(#197));
#114=EDGE_LOOP('',(#198));
#115=EDGE_LOOP('',(#199));
#116=EDGE_LOOP('',(#200,#201,#202,#203));
#117=EDGE_LOOP('',(#204));
#118=EDGE_LOOP('',(#205));
#119=EDGE_LOOP('',(#206,#207,#208,#209));
#120=EDGE_LOOP('',(#210));
#121=EDGE_LOOP('',(#211));
#122=EDGE_LOOP('',(#212,#213,#214,#215));
#123=EDGE_LOOP('',(#216));
#124=EDGE_LOOP('',(#217));
#125=EDGE_LOOP('',(#218,#219,#220,#221));
#126=EDGE_LOOP('',(#222,#223,#224,#225));
#127=EDGE_LOOP('',(#226));
#128=EDGE_LOOP('',(#227,#228,#229,#230));
#129=EDGE_LOOP('',(#231));
#130=B_SPLINE_CURVE_WITH_KNOTS('',3,(#354,#355,#356,#357,#358,#359,#360,
#361,#362,#363,#364,#365,#366,#367,#368,#369,#370,#371,#372,#373,#374,#375,
#376,#377,#378,#379,#380,#381,#382,#383,#384,#385,#386,#387,#388,#389,#390,
#391,#392,#393,#394,#395,#396,#397,#398,#399,#400,#401,#402,#403,#404,#405,
#406,#407,#408,#409,#410,#411),.UNSPECIFIED.,.T.,.F.,(4,2,2,2,2,2,2,2,2,
2,2,2,2,2,2,2,2,2,2,2,2,2,2,2,2,2,2,2,4),(-4.0137213762762,-3.94683850971568,
-3.87995564315516,-3.74618991003412,-3.47865844379203,-3.24447473799959,
-3.12738288510337,-3.01029103220715,-2.89319917931093,-2.77610732641472,
-2.54192362062228,-2.27439215438019,-2.14062642125915,-2.07374355469862,
-2.0068606881381,-1.93997782157758,-1.87309495501706,-1.73932922189601,
-1.47179775565393,-1.23761404986149,-1.12052219696527,-1.00343034406905,
-0.886338491172832,-0.769246638276613,-0.535062932484174,-0.267531466242087,
-0.133765733121044,-0.0668828665605218,0.),.UNSPECIFIED.);
#131=B_SPLINE_CURVE_WITH_KNOTS('',3,(#416,#417,#418,#419,#420,#421,#422,
#423,#424,#425,#426,#427,#428,#429,#430,#431,#432,#433,#434,#435,#436,#437,
#438,#439,#440,#441,#442,#443,#444,#445,#446,#447,#448,#449,#450,#451,#452,
#453,#454,#455,#456,#457,#458,#459,#460,#461,#462,#463,#464,#465,#466,#467,
#468,#469,#470,#471,#472,#473),.UNSPECIFIED.,.T.,.F.,(4,2,2,2,2,2,2,2,2,
2,2,2,2,2,2,2,2,2,2,2,2,2,2,2,2,2,2,2,4),(-4.01372137627621,-3.94683850971568,
-3.87995564315516,-3.74618991003412,-3.47865844379203,-3.24447473799959,
-3.12738288510337,-3.01029103220715,-2.89319917931094,-2.77610732641472,
-2.54192362062228,-2.27439215438019,-2.14062642125915,-2.07374355469863,
-2.0068606881381,-1.93997782157758,-1.87309495501706,-1.73932922189602,
-1.47179775565393,-1.23761404986149,-1.12052219696527,-1.00343034406905,
-0.886338491172833,-0.769246638276614,-0.535062932484176,-0.267531466242088,
-0.133765733121044,-0.066882866560522,0.),.UNSPECIFIED.);
#132=VERTEX_POINT('',#353);
#133=VERTEX_POINT('',#412);
#134=VERTEX_POINT('',#415);
#135=VERTEX_POINT('',#474);
#136=VERTEX_POINT('',#477);
#137=VERTEX_POINT('',#479);
#138=VERTEX_POINT('',#482);
#139=VERTEX_POINT('',#484);
#140=VERTEX_POINT('',#487);
#141=VERTEX_POINT('',#489);
#142=VERTEX_POINT('',#492);
#143=VERTEX_POINT('',#495);
#144=VERTEX_POINT('',#497);
#145=VERTEX_POINT('',#500);
#146=VERTEX_POINT('',#504);
#147=VERTEX_POINT('',#505);
#148=VERTEX_POINT('',#507);
#149=VERTEX_POINT('',#509);
#150=VERTEX_POINT('',#513);
#151=VERTEX_POINT('',#515);
#152=VERTEX_POINT('',#519);
#153=VERTEX_POINT('',#521);
#154=EDGE_CURVE('',#132,#132,#130,.T.);
#155=EDGE_CURVE('',#133,#133,#69,.T.);
#156=EDGE_CURVE('',#134,#134,#131,.T.);
#157=EDGE_CURVE('',#135,#135,#70,.T.);
#158=EDGE_CURVE('',#136,#136,#71,.T.);
#159=EDGE_CURVE('',#137,#137,#72,.T.);
#160=EDGE_CURVE('',#138,#138,#73,.T.);
#161=EDGE_CURVE('',#139,#139,#74,.T.);
#162=EDGE_CURVE('',#140,#140,#75,.T.);
#163=EDGE_CURVE('',#141,#141,#76,.T.);
#164=EDGE_CURVE('',#142,#142,#77,.T.);
#165=EDGE_CURVE('',#143,#143,#78,.T.);
#166=EDGE_CURVE('',#144,#144,#79,.T.);
#167=EDGE_CURVE('',#145,#145,#80,.T.);
#168=EDGE_CURVE('',#146,#147,#18,.T.);
#169=EDGE_CURVE('',#148,#146,#19,.T.);
#170=EDGE_CURVE('',#148,#149,#20,.T.);
#171=EDGE_CURVE('',#149,#147,#21,.T.);
#172=EDGE_CURVE('',#150,#146,#22,.T.);
#173=EDGE_CURVE('',#151,#150,#23,.T.);
#174=EDGE_CURVE('',#151,#148,#24,.T.);
#175=EDGE_CURVE('',#152,#150,#25,.T.);
#176=EDGE_CURVE('',#153,#152,#26,.T.);
#177=EDGE_CURVE('',#153,#151,#27,.T.);
#178=EDGE_CURVE('',#147,#152,#28,.T.);
#179=EDGE_CURVE('',#149,#153,#29,.T.);
#180=ORIENTED_EDGE('',*,*,#154,.F.);
#181=ORIENTED_EDGE('',*,*,#155,.T.);
#182=ORIENTED_EDGE('',*,*,#156,.F.);
#183=ORIENTED_EDGE('',*,*,#157,.T.);
#184=ORIENTED_EDGE('',*,*,#158,.F.);
#185=ORIENTED_EDGE('',*,*,#159,.T.);
#186=ORIENTED_EDGE('',*,*,#160,.F.);
#187=ORIENTED_EDGE('',*,*,#161,.T.);
#188=ORIENTED_EDGE('',*,*,#162,.F.);
#189=ORIENTED_EDGE('',*,*,#163,.T.);
#190=ORIENTED_EDGE('',*,*,#164,.F.);
#191=ORIENTED_EDGE('',*,*,#162,.T.);
#192=ORIENTED_EDGE('',*,*,#165,.F.);
#193=ORIENTED_EDGE('',*,*,#166,.T.);
#194=ORIENTED_EDGE('',*,*,#167,.F.);
#195=ORIENTED_EDGE('',*,*,#165,.T.);
#196=ORIENTED_EDGE('',*,*,#164,.T.);
#197=ORIENTED_EDGE('',*,*,#156,.T.);
#198=ORIENTED_EDGE('',*,*,#154,.T.);
#199=ORIENTED_EDGE('',*,*,#167,.T.);
#200=ORIENTED_EDGE('',*,*,#168,.F.);
#201=ORIENTED_EDGE('',*,*,#169,.F.);
#202=ORIENTED_EDGE('',*,*,#170,.T.);
#203=ORIENTED_EDGE('',*,*,#171,.T.);
#204=ORIENTED_EDGE('',*,*,#158,.T.);
#205=ORIENTED_EDGE('',*,*,#160,.T.);
#206=ORIENTED_EDGE('',*,*,#172,.F.);
#207=ORIENTED_EDGE('',*,*,#173,.F.);
#208=ORIENTED_EDGE('',*,*,#174,.T.);
#209=ORIENTED_EDGE('',*,*,#169,.T.);
#210=ORIENTED_EDGE('',*,*,#155,.F.);
#211=ORIENTED_EDGE('',*,*,#157,.F.);
#212=ORIENTED_EDGE('',*,*,#175,.F.);
#213=ORIENTED_EDGE('',*,*,#176,.F.);
#214=ORIENTED_EDGE('',*,*,#177,.T.);
#215=ORIENTED_EDGE('',*,*,#173,.T.);
#216=ORIENTED_EDGE('',*,*,#159,.F.);
#217=ORIENTED_EDGE('',*,*,#161,.F.);
#218=ORIENTED_EDGE('',*,*,#178,.F.);
#219=ORIENTED_EDGE('',*,*,#171,.F.);
#220=ORIENTED_EDGE('',*,*,#179,.T.);
#221=ORIENTED_EDGE('',*,*,#176,.T.);
#222=ORIENTED_EDGE('',*,*,#170,.F.);
#223=ORIENTED_EDGE('',*,*,#174,.F.);
#224=ORIENTED_EDGE('',*,*,#177,.F.);
#225=ORIENTED_EDGE('',*,*,#179,.F.);
#226=ORIENTED_EDGE('',*,*,#163,.F.);
#227=ORIENTED_EDGE('',*,*,#168,.T.);
#228=ORIENTED_EDGE('',*,*,#178,.T.);
#229=ORIENTED_EDGE('',*,*,#175,.T.);
#230=ORIENTED_EDGE('',*,*,#172,.T.);
#231=ORIENTED_EDGE('',*,*,#166,.F.);
#232=CYLINDRICAL_SURFACE('',#256,5.7225);
#233=CYLINDRICAL_SURFACE('',#258,5.7225);
#234=CYLINDRICAL_SURFACE('',#260,3.25);
#235=CYLINDRICAL_SURFACE('',#263,3.25);
#236=CYLINDRICAL_SURFACE('',#266,7.475);
#237=CYLINDRICAL_SURFACE('',#271,7.475);
#238=CYLINDRICAL_SURFACE('',#276,6.);
#239=ADVANCED_FACE('',(#81,#50),#232,.F.);
#240=ADVANCED_FACE('',(#82,#51),#233,.F.);
#241=ADVANCED_FACE('',(#83,#52),#234,.F.);
#242=ADVANCED_FACE('',(#84,#53),#235,.F.);
#243=ADVANCED_FACE('',(#85,#54),#236,.F.);
#244=ADVANCED_FACE('',(#86,#55),#48,.F.);
#245=ADVANCED_FACE('',(#87,#56),#237,.F.);
#246=ADVANCED_FACE('',(#88,#57),#49,.F.);
#247=ADVANCED_FACE('',(#89,#58,#59,#60),#238,.F.);
#248=ADVANCED_FACE('',(#90,#61,#62),#42,.T.);
#249=ADVANCED_FACE('',(#91,#63,#64),#43,.T.);
#250=ADVANCED_FACE('',(#92,#65,#66),#44,.T.);
#251=ADVANCED_FACE('',(#93),#45,.T.);
#252=ADVANCED_FACE('',(#94,#67),#46,.T.);
#253=ADVANCED_FACE('',(#95,#68),#47,.F.);
#254=CLOSED_SHELL('',(#239,#240,#241,#242,#243,#244,#245,#246,#247,#248,
#249,#250,#251,#252,#253));
#255=AXIS2_PLACEMENT_3D('placement',#351,#283,#284);
#256=AXIS2_PLACEMENT_3D('',#352,#285,#286);
#257=AXIS2_PLACEMENT_3D('',#413,#287,#288);
#258=AXIS2_PLACEMENT_3D('',#414,#289,#290);
#259=AXIS2_PLACEMENT_3D('',#475,#291,#292);
#260=AXIS2_PLACEMENT_3D('',#476,#293,#294);
#261=AXIS2_PLACEMENT_3D('',#478,#295,#296);
#262=AXIS2_PLACEMENT_3D('',#480,#297,#298);
#263=AXIS2_PLACEMENT_3D('',#481,#299,#300);
#264=AXIS2_PLACEMENT_3D('',#483,#301,#302);
#265=AXIS2_PLACEMENT_3D('',#485,#303,#304);
#266=AXIS2_PLACEMENT_3D('',#486,#305,#306);
#267=AXIS2_PLACEMENT_3D('',#488,#307,#308);
#268=AXIS2_PLACEMENT_3D('',#490,#309,#310);
#269=AXIS2_PLACEMENT_3D('',#491,#311,#312);
#270=AXIS2_PLACEMENT_3D('',#493,#313,#314);
#271=AXIS2_PLACEMENT_3D('',#494,#315,#316);
#272=AXIS2_PLACEMENT_3D('',#496,#317,#318);
#273=AXIS2_PLACEMENT_3D('',#498,#319,#320);
#274=AXIS2_PLACEMENT_3D('',#499,#321,#322);
#275=AXIS2_PLACEMENT_3D('',#501,#323,#324);
#276=AXIS2_PLACEMENT_3D('',#502,#325,#326);
#277=AXIS2_PLACEMENT_3D('',#503,#327,#328);
#278=AXIS2_PLACEMENT_3D('',#512,#333,#334);
#279=AXIS2_PLACEMENT_3D('',#518,#338,#339);
#280=AXIS2_PLACEMENT_3D('',#524,#343,#344);
#281=AXIS2_PLACEMENT_3D('',#527,#347,#348);
#282=AXIS2_PLACEMENT_3D('',#528,#349,#350);
#283=DIRECTION('axis',(0.,0.,1.));
#284=DIRECTION('refdir',(1.,0.,0.));
#285=DIRECTION('center_axis',(0.,1.,0.));
#286=DIRECTION('ref_axis',(0.,0.,1.));
#287=DIRECTION('center_axis',(0.,1.,0.));
#288=DIRECTION('ref_axis',(0.,0.,1.));
#289=DIRECTION('center_axis',(0.,1.,0.));
#290=DIRECTION('ref_axis',(0.,0.,1.));
#291=DIRECTION('center_axis',(0.,1.,0.));
#292=DIRECTION('ref_axis',(0.,0.,1.));
#293=DIRECTION('center_axis',(0.,0.,-1.));
#294=DIRECTION('ref_axis',(-1.,0.,0.));
#295=DIRECTION('center_axis',(0.,0.,-1.));
#296=DIRECTION('ref_axis',(-1.,0.,0.));
#297=DIRECTION('center_axis',(0.,0.,-1.));
#298=DIRECTION('ref_axis',(-1.,0.,0.));
#299=DIRECTION('center_axis',(0.,0.,-1.));
#300=DIRECTION('ref_axis',(-1.,0.,0.));
#301=DIRECTION('center_axis',(0.,0.,-1.));
#302=DIRECTION('ref_axis',(-1.,0.,0.));
#303=DIRECTION('center_axis',(0.,0.,-1.));
#304=DIRECTION('ref_axis',(-1.,0.,0.));
#305=DIRECTION('center_axis',(-1.,0.,0.));
#306=DIRECTION('ref_axis',(0.,0.,1.));
#307=DIRECTION('center_axis',(-1.,0.,0.));
#308=DIRECTION('ref_axis',(0.,0.,1.));
#309=DIRECTION('center_axis',(-1.,0.,0.));
#310=DIRECTION('ref_axis',(0.,0.,1.));
#311=DIRECTION('center_axis',(-1.,0.,0.));
#312=DIRECTION('ref_axis',(0.,0.,1.));
#313=DIRECTION('center_axis',(-1.,0.,0.));
#314=DIRECTION('ref_axis',(0.,0.,1.));
#315=DIRECTION('center_axis',(1.,0.,0.));
#316=DIRECTION('ref_axis',(0.,0.,-1.));
#317=DIRECTION('center_axis',(1.,0.,0.));
#318=DIRECTION('ref_axis',(0.,0.,-1.));
#319=DIRECTION('center_axis',(1.,0.,0.));
#320=DIRECTION('ref_axis',(0.,0.,-1.));
#321=DIRECTION('center_axis',(1.,0.,0.));
#322=DIRECTION('ref_axis',(0.,0.,-1.));
#323=DIRECTION('center_axis',(1.,0.,0.));
#324=DIRECTION('ref_axis',(0.,0.,-1.));
#325=DIRECTION('center_axis',(1.,0.,0.));
#326=DIRECTION('ref_axis',(0.,0.,-1.));
#327=DIRECTION('center_axis',(0.,0.,1.));
#328=DIRECTION('ref_axis',(1.,0.,0.));
#329=DIRECTION('',(0.,-1.,0.));
#330=DIRECTION('',(1.,0.,0.));
#331=DIRECTION('',(0.,-1.,0.));
#332=DIRECTION('',(1.,0.,0.));
#333=DIRECTION('center_axis',(0.,1.,0.));
#334=DIRECTION('ref_axis',(0.,0.,1.));
#335=DIRECTION('',(0.,0.,1.));
#336=DIRECTION('',(1.,0.,0.));
#337=DIRECTION('',(0.,0.,1.));
#338=DIRECTION('center_axis',(0.,0.,-1.));
#339=DIRECTION('ref_axis',(-1.,0.,0.));
#340=DIRECTION('',(0.,1.,0.));
#341=DIRECTION('',(1.,0.,0.));
#342=DIRECTION('',(0.,1.,0.));
#343=DIRECTION('center_axis',(0.,-1.,0.));
#344=DIRECTION('ref_axis',(0.,0.,-1.));
#345=DIRECTION('',(0.,0.,-1.));
#346=DIRECTION('',(0.,0.,-1.));
#347=DIRECTION('center_axis',(-1.,0.,0.));
#348=DIRECTION('ref_axis',(0.,0.,1.));
#349=DIRECTION('center_axis',(-1.,0.,0.));
#350=DIRECTION('ref_axis',(0.,0.,1.));
#351=CARTESIAN_POINT('',(0.,0.,0.));
#352=CARTESIAN_POINT('Origin',(-54.,40.,-10.));
#353=CARTESIAN_POINT('',(-54.,21.8036057634639,-15.7225));
#354=CARTESIAN_POINT('Ctrl Pts',(-54.,21.8036057634639,-4.2775));
#355=CARTESIAN_POINT('Ctrl Pts',(-53.7770571114649,21.8036057634639,-4.2775));
#356=CARTESIAN_POINT('Ctrl Pts',(-53.5734888807896,21.8442970638468,-4.2900990970838));
#357=CARTESIAN_POINT('Ctrl Pts',(-53.186555247616,21.9700791057917,-4.33226782584348));
#358=CARTESIAN_POINT('Ctrl Pts',(-53.0032324981971,22.0552443560213,-4.36200637611761));
#359=CARTESIAN_POINT('Ctrl Pts',(-52.4656832963213,22.3488209592444,-4.47487661217818));
#360=CARTESIAN_POINT('Ctrl Pts',(-52.1248778439371,22.5931204083977,-4.58122824239917));
#361=CARTESIAN_POINT('Ctrl Pts',(-51.1181848388539,23.3730322851189,-5.00280815310758));
#362=CARTESIAN_POINT('Ctrl Pts',(-50.483286544747,23.9463605134296,-5.42387634457296));
#363=CARTESIAN_POINT('Ctrl Pts',(-49.4899040124013,24.8536918864811,-6.41725887691867));
#364=CARTESIAN_POINT('Ctrl Pts',(-49.0532914668006,25.264332127254,-7.02352515858325));
#365=CARTESIAN_POINT('Ctrl Pts',(-48.5979613829859,25.6949612326724,-8.07371681142378));
#366=CARTESIAN_POINT('Ctrl Pts',(-48.4783111199911,25.8087381344512,-8.44699463704367));
#367=CARTESIAN_POINT('Ctrl Pts',(-48.3180460613361,25.9612910672288,-9.21496930857203));
#368=CARTESIAN_POINT('Ctrl Pts',(-48.2775,26.,-9.60969382367927));
#369=CARTESIAN_POINT('Ctrl Pts',(-48.2775,26.,-10.3903061763207));
#370=CARTESIAN_POINT('Ctrl Pts',(-48.3180460613361,25.9612910672288,-10.785030691428));
#371=CARTESIAN_POINT('Ctrl Pts',(-48.4783111199911,25.8087381344512,-11.5530053629563));
#372=CARTESIAN_POINT('Ctrl Pts',(-48.5979613829859,25.6949612326724,-11.9262831885762));
#373=CARTESIAN_POINT('Ctrl Pts',(-49.0532914668006,25.264332127254,-12.9764748414168));
#374=CARTESIAN_POINT('Ctrl Pts',(-49.4899040124013,24.8536918864811,-13.5827411230813));
#375=CARTESIAN_POINT('Ctrl Pts',(-50.483286544747,23.9463605134296,-14.576123655427));
#376=CARTESIAN_POINT('Ctrl Pts',(-51.1181848388539,23.3730322851189,-14.9971918468924));
#377=CARTESIAN_POINT('Ctrl Pts',(-52.1248778439372,22.5931204083977,-15.4187717576008));
#378=CARTESIAN_POINT('Ctrl Pts',(-52.4656832963213,22.3488209592444,-15.5251233878218));
#379=CARTESIAN_POINT('Ctrl Pts',(-53.0032324981972,22.0552443560213,-15.6379936238824));
#380=CARTESIAN_POINT('Ctrl Pts',(-53.186555247616,21.9700791057917,-15.6677321741565));
#381=CARTESIAN_POINT('Ctrl Pts',(-53.5734888807896,21.8442970638468,-15.7099009029162));
#382=CARTESIAN_POINT('Ctrl Pts',(-53.7770571114649,21.8036057634639,-15.7225));
#383=CARTESIAN_POINT('Ctrl Pts',(-54.2229428885351,21.8036057634639,-15.7225));
#384=CARTESIAN_POINT('Ctrl Pts',(-54.4265111192104,21.8442970638468,-15.7099009029162));
#385=CARTESIAN_POINT('Ctrl Pts',(-54.813444752384,21.9700791057917,-15.6677321741565));
#386=CARTESIAN_POINT('Ctrl Pts',(-54.9967675018029,22.0552443560213,-15.6379936238824));
#387=CARTESIAN_POINT('Ctrl Pts',(-55.5343167036787,22.3488209592444,-15.5251233878218));
#388=CARTESIAN_POINT('Ctrl Pts',(-55.8751221560628,22.5931204083977,-15.4187717576008));
#389=CARTESIAN_POINT('Ctrl Pts',(-56.8818151611461,23.3730322851189,-14.9971918468924));
#390=CARTESIAN_POINT('Ctrl Pts',(-57.516713455253,23.9463605134296,-14.576123655427));
#391=CARTESIAN_POINT('Ctrl Pts',(-58.5100959875987,24.8536918864811,-13.5827411230813));
#392=CARTESIAN_POINT('Ctrl Pts',(-58.9467085331993,25.264332127254,-12.9764748414168));
#393=CARTESIAN_POINT('Ctrl Pts',(-59.4020386170141,25.6949612326724,-11.9262831885762));
#394=CARTESIAN_POINT('Ctrl Pts',(-59.5216888800089,25.8087381344512,-11.5530053629563));
#395=CARTESIAN_POINT('Ctrl Pts',(-59.6819539386639,25.9612910672288,-10.785030691428));
#396=CARTESIAN_POINT('Ctrl Pts',(-59.7225,26.,-10.3903061763207));
#397=CARTESIAN_POINT('Ctrl Pts',(-59.7225,26.,-9.60969382367927));
#398=CARTESIAN_POINT('Ctrl Pts',(-59.6819539386639,25.9612910672288,-9.21496930857203));
#399=CARTESIAN_POINT('Ctrl Pts',(-59.5216888800089,25.8087381344512,-8.44699463704367));
#400=CARTESIAN_POINT('Ctrl Pts',(-59.4020386170141,25.6949612326724,-8.07371681142378));
#401=CARTESIAN_POINT('Ctrl Pts',(-58.9467085331993,25.264332127254,-7.02352515858324));
#402=CARTESIAN_POINT('Ctrl Pts',(-58.5100959875987,24.8536918864811,-6.41725887691867));
#403=CARTESIAN_POINT('Ctrl Pts',(-57.516713455253,23.9463605134296,-5.42387634457296));
#404=CARTESIAN_POINT('Ctrl Pts',(-56.8818151611461,23.3730322851189,-5.00280815310758));
#405=CARTESIAN_POINT('Ctrl Pts',(-55.8751221560629,22.5931204083977,-4.58122824239917));
#406=CARTESIAN_POINT('Ctrl Pts',(-55.5343167036787,22.3488209592444,-4.47487661217818));
#407=CARTESIAN_POINT('Ctrl Pts',(-54.9967675018029,22.0552443560213,-4.36200637611761));
#408=CARTESIAN_POINT('Ctrl Pts',(-54.813444752384,21.9700791057917,-4.33226782584348));
#409=CARTESIAN_POINT('Ctrl Pts',(-54.4265111192104,21.8442970638468,-4.2900990970838));
#410=CARTESIAN_POINT('Ctrl Pts',(-54.2229428885351,21.8036057634639,-4.2775));
#411=CARTESIAN_POINT('Ctrl Pts',(-54.,21.8036057634639,-4.2775));
#412=CARTESIAN_POINT('',(-54.,40.,-4.2775));
#413=CARTESIAN_POINT('Origin',(-54.,40.,-10.));
#414=CARTESIAN_POINT('Origin',(-18.,40.,-10.));
#415=CARTESIAN_POINT('',(-18.,21.8036057634639,-15.7225));
#416=CARTESIAN_POINT('Ctrl Pts',(-18.,21.8036057634639,-4.2775));
#417=CARTESIAN_POINT('Ctrl Pts',(-17.7770571114649,21.8036057634639,-4.2775));
#418=CARTESIAN_POINT('Ctrl Pts',(-17.5734888807896,21.8442970638468,-4.2900990970838));
#419=CARTESIAN_POINT('Ctrl Pts',(-17.186555247616,21.9700791057917,-4.33226782584348));
#420=CARTESIAN_POINT('Ctrl Pts',(-17.0032324981971,22.0552443560213,-4.36200637611761));
#421=CARTESIAN_POINT('Ctrl Pts',(-16.4656832963213,22.3488209592444,-4.47487661217818));
#422=CARTESIAN_POINT('Ctrl Pts',(-16.1248778439371,22.5931204083977,-4.58122824239917));
#423=CARTESIAN_POINT('Ctrl Pts',(-15.1181848388539,23.3730322851189,-5.00280815310759));
#424=CARTESIAN_POINT('Ctrl Pts',(-14.483286544747,23.9463605134296,-5.42387634457296));
#425=CARTESIAN_POINT('Ctrl Pts',(-13.4899040124013,24.8536918864811,-6.41725887691868));
#426=CARTESIAN_POINT('Ctrl Pts',(-13.0532914668006,25.264332127254,-7.02352515858326));
#427=CARTESIAN_POINT('Ctrl Pts',(-12.5979613829859,25.6949612326724,-8.07371681142379));
#428=CARTESIAN_POINT('Ctrl Pts',(-12.4783111199911,25.8087381344512,-8.44699463704368));
#429=CARTESIAN_POINT('Ctrl Pts',(-12.3180460613361,25.9612910672288,-9.21496930857203));
#430=CARTESIAN_POINT('Ctrl Pts',(-12.2775,26.,-9.60969382367927));
#431=CARTESIAN_POINT('Ctrl Pts',(-12.2775,26.,-10.3903061763207));
#432=CARTESIAN_POINT('Ctrl Pts',(-12.3180460613361,25.9612910672288,-10.785030691428));
#433=CARTESIAN_POINT('Ctrl Pts',(-12.4783111199911,25.8087381344512,-11.5530053629563));
#434=CARTESIAN_POINT('Ctrl Pts',(-12.5979613829859,25.6949612326724,-11.9262831885762));
#435=CARTESIAN_POINT('Ctrl Pts',(-13.0532914668006,25.264332127254,-12.9764748414167));
#436=CARTESIAN_POINT('Ctrl Pts',(-13.4899040124013,24.8536918864811,-13.5827411230813));
#437=CARTESIAN_POINT('Ctrl Pts',(-14.483286544747,23.9463605134296,-14.576123655427));
#438=CARTESIAN_POINT('Ctrl Pts',(-15.1181848388539,23.3730322851189,-14.9971918468924));
#439=CARTESIAN_POINT('Ctrl Pts',(-16.1248778439371,22.5931204083977,-15.4187717576008));
#440=CARTESIAN_POINT('Ctrl Pts',(-16.4656832963213,22.3488209592444,-15.5251233878218));
#441=CARTESIAN_POINT('Ctrl Pts',(-17.0032324981971,22.0552443560213,-15.6379936238824));
#442=CARTESIAN_POINT('Ctrl Pts',(-17.186555247616,21.9700791057917,-15.6677321741565));
#443=CARTESIAN_POINT('Ctrl Pts',(-17.5734888807896,21.8442970638468,-15.7099009029162));
#444=CARTESIAN_POINT('Ctrl Pts',(-17.7770571114649,21.8036057634639,-15.7225));
#445=CARTESIAN_POINT('Ctrl Pts',(-18.2229428885351,21.8036057634639,-15.7225));
#446=CARTESIAN_POINT('Ctrl Pts',(-18.4265111192104,21.8442970638468,-15.7099009029162));
#447=CARTESIAN_POINT('Ctrl Pts',(-18.813444752384,21.9700791057917,-15.6677321741565));
#448=CARTESIAN_POINT('Ctrl Pts',(-18.9967675018029,22.0552443560213,-15.6379936238824));
#449=CARTESIAN_POINT('Ctrl Pts',(-19.5343167036787,22.3488209592444,-15.5251233878218));
#450=CARTESIAN_POINT('Ctrl Pts',(-19.8751221560628,22.5931204083977,-15.4187717576008));
#451=CARTESIAN_POINT('Ctrl Pts',(-20.8818151611461,23.3730322851189,-14.9971918468924));
#452=CARTESIAN_POINT('Ctrl Pts',(-21.516713455253,23.9463605134296,-14.576123655427));
#453=CARTESIAN_POINT('Ctrl Pts',(-22.5100959875987,24.8536918864811,-13.5827411230813));
#454=CARTESIAN_POINT('Ctrl Pts',(-22.9467085331994,25.264332127254,-12.9764748414168));
#455=CARTESIAN_POINT('Ctrl Pts',(-23.4020386170141,25.6949612326724,-11.9262831885762));
#456=CARTESIAN_POINT('Ctrl Pts',(-23.5216888800089,25.8087381344512,-11.5530053629563));
#457=CARTESIAN_POINT('Ctrl Pts',(-23.6819539386639,25.9612910672288,-10.785030691428));
#458=CARTESIAN_POINT('Ctrl Pts',(-23.7225,26.,-10.3903061763207));
#459=CARTESIAN_POINT('Ctrl Pts',(-23.7225,26.,-9.60969382367927));
#460=CARTESIAN_POINT('Ctrl Pts',(-23.6819539386639,25.9612910672288,-9.21496930857203));
#461=CARTESIAN_POINT('Ctrl Pts',(-23.5216888800089,25.8087381344512,-8.44699463704367));
#462=CARTESIAN_POINT('Ctrl Pts',(-23.4020386170141,25.6949612326724,-8.07371681142378));
#463=CARTESIAN_POINT('Ctrl Pts',(-22.9467085331994,25.264332127254,-7.02352515858325));
#464=CARTESIAN_POINT('Ctrl Pts',(-22.5100959875987,24.8536918864811,-6.41725887691868));
#465=CARTESIAN_POINT('Ctrl Pts',(-21.516713455253,23.9463605134296,-5.42387634457296));
#466=CARTESIAN_POINT('Ctrl Pts',(-20.8818151611461,23.3730322851189,-5.00280815310758));
#467=CARTESIAN_POINT('Ctrl Pts',(-19.8751221560628,22.5931204083977,-4.58122824239917));
#468=CARTESIAN_POINT('Ctrl Pts',(-19.5343167036787,22.3488209592444,-4.47487661217818));
#469=CARTESIAN_POINT('Ctrl Pts',(-18.9967675018029,22.0552443560213,-4.36200637611761));
#470=CARTESIAN_POINT('Ctrl Pts',(-18.813444752384,21.9700791057917,-4.33226782584348));
#471=CARTESIAN_POINT('Ctrl Pts',(-18.4265111192104,21.8442970638468,-4.2900990970838));
#472=CARTESIAN_POINT('Ctrl Pts',(-18.2229428885351,21.8036057634639,-4.2775));
#473=CARTESIAN_POINT('Ctrl Pts',(-18.,21.8036057634639,-4.2775));
#474=CARTESIAN_POINT('',(-18.,40.,-4.2775));
#475=CARTESIAN_POINT('Origin',(-18.,40.,-10.));
#476=CARTESIAN_POINT('Origin',(-36.,6.,0.));
#477=CARTESIAN_POINT('',(-39.25,6.,0.));
#478=CARTESIAN_POINT('Origin',(-36.,6.,0.));
#479=CARTESIAN_POINT('',(-39.25,6.,-20.));
#480=CARTESIAN_POINT('Origin',(-36.,6.,-20.));
#481=CARTESIAN_POINT('Origin',(-36.,34.,0.));
#482=CARTESIAN_POINT('',(-39.25,34.,0.));
#483=CARTESIAN_POINT('Origin',(-36.,34.,0.));
#484=CARTESIAN_POINT('',(-39.25,34.,-20.));
#485=CARTESIAN_POINT('Origin',(-36.,34.,-20.));
#486=CARTESIAN_POINT('Origin',(-72.,20.,-10.));
#487=CARTESIAN_POINT('',(-61.2,20.,-2.525));
#488=CARTESIAN_POINT('Origin',(-61.2,20.,-10.));
#489=CARTESIAN_POINT('',(-72.,20.,-2.525));
#490=CARTESIAN_POINT('Origin',(-72.,20.,-10.));
#491=CARTESIAN_POINT('Origin',(-61.2,20.,-10.));
#492=CARTESIAN_POINT('',(-60.3137305869343,20.,-4.));
#493=CARTESIAN_POINT('Origin',(-60.3137305869343,20.,-10.));
#494=CARTESIAN_POINT('Origin',(0.,20.,-10.));
#495=CARTESIAN_POINT('',(-10.8,20.,-17.475));
#496=CARTESIAN_POINT('Origin',(-10.8,20.,-10.));
#497=CARTESIAN_POINT('',(-5.13678099902357E-16,20.,-17.475));
#498=CARTESIAN_POINT('Origin',(-5.13678099902357E-16,20.,-10.));
#499=CARTESIAN_POINT('Origin',(-10.8,20.,-10.));
#500=CARTESIAN_POINT('',(-11.6862694130657,20.,-16.));
#501=CARTESIAN_POINT('Origin',(-11.6862694130657,20.,-10.));
#502=CARTESIAN_POINT('Origin',(-72.,20.,-10.));
#503=CARTESIAN_POINT('Origin',(-72.,0.,0.));
#504=CARTESIAN_POINT('',(0.,40.,0.));
#505=CARTESIAN_POINT('',(0.,0.,0.));
#506=CARTESIAN_POINT('',(0.,0.,0.));
#507=CARTESIAN_POINT('',(-72.,40.,0.));
#508=CARTESIAN_POINT('',(-72.,40.,0.));
#509=CARTESIAN_POINT('',(-72.,0.,0.));
#510=CARTESIAN_POINT('',(-72.,0.,0.));
#511=CARTESIAN_POINT('',(-72.,0.,0.));
#512=CARTESIAN_POINT('Origin',(-72.,40.,0.));
#513=CARTESIAN_POINT('',(0.,40.,-20.));
#514=CARTESIAN_POINT('',(0.,40.,0.));
#515=CARTESIAN_POINT('',(-72.,40.,-20.));
#516=CARTESIAN_POINT('',(-72.,40.,-20.));
#517=CARTESIAN_POINT('',(-72.,40.,0.));
#518=CARTESIAN_POINT('Origin',(-72.,0.,-20.));
#519=CARTESIAN_POINT('',(0.,0.,-20.));
#520=CARTESIAN_POINT('',(0.,0.,-20.));
#521=CARTESIAN_POINT('',(-72.,0.,-20.));
#522=CARTESIAN_POINT('',(-72.,0.,-20.));
#523=CARTESIAN_POINT('',(-72.,0.,-20.));
#524=CARTESIAN_POINT('Origin',(-72.,0.,0.));
#525=CARTESIAN_POINT('',(0.,0.,0.));
#526=CARTESIAN_POINT('',(-72.,0.,0.));
#527=CARTESIAN_POINT('Origin',(-72.,0.,0.));
#528=CARTESIAN_POINT('Origin',(0.,0.,0.));
#529=UNCERTAINTY_MEASURE_WITH_UNIT(LENGTH_MEASURE(0.01),#533,
'DISTANCE_ACCURACY_VALUE',
'Maximum model space distance between geometric entities at asserted c
onnectivities');
#530=UNCERTAINTY_MEASURE_WITH_UNIT(LENGTH_MEASURE(1.E-6),#533,
'DISTANCE_ACCURACY_VALUE',
'Maximum model space distance between geometric entities at asserted c
onnectivities');
#531=(
GEOMETRIC_REPRESENTATION_CONTEXT(3)
GLOBAL_UNCERTAINTY_ASSIGNED_CONTEXT((#529))
GLOBAL_UNIT_ASSIGNED_CONTEXT((#533,#535,#534))
REPRESENTATION_CONTEXT('','3D')
);
#532=(
GEOMETRIC_REPRESENTATION_CONTEXT(3)
GLOBAL_UNCERTAINTY_ASSIGNED_CONTEXT((#530))
GLOBAL_UNIT_ASSIGNED_CONTEXT((#533,#12,#534))
REPRESENTATION_CONTEXT('','3D')
);
#533=(
LENGTH_UNIT()
NAMED_UNIT(*)
SI_UNIT(.MILLI.,.METRE.)
);
#534=(
NAMED_UNIT(*)
SI_UNIT($,.STERADIAN.)
SOLID_ANGLE_UNIT()
);
#535=(
NAMED_UNIT(*)
PLANE_ANGLE_UNIT()
SI_UNIT($,.RADIAN.)
);
#536=SHAPE_DEFINITION_REPRESENTATION(#537,#538);
#537=PRODUCT_DEFINITION_SHAPE('',$,#540);
#538=SHAPE_REPRESENTATION('',(#255),#531);
#539=PRODUCT_DEFINITION_CONTEXT('part definition',#544,'design');
#540=PRODUCT_DEFINITION('RLE2 3814A','RLE2 3814A',#541,#539);
#541=PRODUCT_DEFINITION_FORMATION('',$,#546);
#542=PRODUCT_RELATED_PRODUCT_CATEGORY('RLE2 3814A','RLE2 3814A',(#546));
#543=APPLICATION_PROTOCOL_DEFINITION('international standard',
'automotive_design',2009,#544);
#544=APPLICATION_CONTEXT(
'Core Data for Automotive Mechanical Design Process');
#545=PRODUCT_CONTEXT('part definition',#544,'mechanical');
#546=PRODUCT('RLE2 3814A','RLE2 3814A',$,(#545));
#547=PRESENTATION_STYLE_ASSIGNMENT((#548));
#548=SURFACE_STYLE_USAGE(.BOTH.,#549);
#549=SURFACE_SIDE_STYLE($,(#550));
#550=SURFACE_STYLE_FILL_AREA(#551);
#551=FILL_AREA_STYLE($,(#552));
#552=FILL_AREA_STYLE_COLOUR($,#553);
#553=COLOUR_RGB('',0.749019607843137,0.749019607843137,0.749019607843137);
ENDSEC;
END-ISO-10303-21;
