ISO-10303-21;
HEADER;
/* Generated by software containing ST-Developer
 * from STEP Tools, Inc. (www.steptools.com) 
 */
/* OPTION: using custom renumber hook */

FILE_DESCRIPTION(
/* description */ ('STEP AP214'),
/* implementation_level */ '2;1');

FILE_NAME(
/* name */ 'A0151060',
/* time_stamp */ '2023-04-20T14:48:27+02:00',
/* author */ ('License CC BY-ND 4.0'),
/* organization */ ('CADENAS'),
/* preprocessor_version */ 'ST-DEVELOPER v19.3',
/* originating_system */ 'PARTsolutions',
/* authorisation */ '  ');

FILE_SCHEMA (('AUTOMOTIVE_DESIGN {1 0 10303 214 3 1 1}'));
ENDSEC;

DATA;
#10=PROPERTY_DEFINITION_REPRESENTATION(#14,#12);
#11=PROPERTY_DEFINITION_REPRESENTATION(#15,#13);
#12=REPRESENTATION('',(#16),#437);
#13=REPRESENTATION('',(#17),#437);
#14=PROPERTY_DEFINITION('pmi validation property','',#442);
#15=PROPERTY_DEFINITION('pmi validation property','',#442);
#16=VALUE_REPRESENTATION_ITEM('number of annotations',COUNT_MEASURE(0.));
#17=VALUE_REPRESENTATION_ITEM('number of views',COUNT_MEASURE(0.));
#18=SHAPE_REPRESENTATION_RELATIONSHIP('','',#251,#19);
#19=ADVANCED_BREP_SHAPE_REPRESENTATION('',(#249),#437);
#20=CYLINDRICAL_SURFACE('',#270,5.975);
#21=CYLINDRICAL_SURFACE('',#271,5.6);
#22=CYLINDRICAL_SURFACE('',#275,5.975);
#23=CYLINDRICAL_SURFACE('',#281,2.075);
#24=CYLINDRICAL_SURFACE('',#283,1.75000000000001);
#25=CYLINDRICAL_SURFACE('',#287,4.5);
#26=CYLINDRICAL_SURFACE('',#290,2.6);
#27=CONICAL_SURFACE('',#268,5.975,0.785398163397448);
#28=CONICAL_SURFACE('',#273,5.975,1.13446401379632);
#29=CONICAL_SURFACE('',#277,5.675,0.785398163397447);
#30=CONICAL_SURFACE('',#278,1732.0508075689,1.0471975511966);
#31=CONICAL_SURFACE('',#284,2.375,0.523598775598301);
#32=CONICAL_SURFACE('',#285,4.5,0.785398163397448);
#33=CONICAL_SURFACE('',#288,2.6,0.785398163397449);
#34=CONICAL_SURFACE('',#292,3.725,1.39626340159547);
#35=ORIENTED_EDGE('',*,*,#75,.F.);
#36=ORIENTED_EDGE('',*,*,#76,.T.);
#37=ORIENTED_EDGE('',*,*,#77,.F.);
#38=ORIENTED_EDGE('',*,*,#78,.T.);
#39=ORIENTED_EDGE('',*,*,#79,.F.);
#40=ORIENTED_EDGE('',*,*,#80,.T.);
#41=ORIENTED_EDGE('',*,*,#81,.F.);
#42=ORIENTED_EDGE('',*,*,#82,.F.);
#43=ORIENTED_EDGE('',*,*,#83,.T.);
#44=ORIENTED_EDGE('',*,*,#84,.T.);
#45=ORIENTED_EDGE('',*,*,#85,.F.);
#46=ORIENTED_EDGE('',*,*,#81,.T.);
#47=ORIENTED_EDGE('',*,*,#80,.F.);
#48=ORIENTED_EDGE('',*,*,#85,.T.);
#49=ORIENTED_EDGE('',*,*,#86,.F.);
#50=ORIENTED_EDGE('',*,*,#79,.T.);
#51=ORIENTED_EDGE('',*,*,#87,.F.);
#52=ORIENTED_EDGE('',*,*,#86,.T.);
#53=ORIENTED_EDGE('',*,*,#88,.F.);
#54=ORIENTED_EDGE('',*,*,#87,.T.);
#55=ORIENTED_EDGE('',*,*,#88,.T.);
#56=ORIENTED_EDGE('',*,*,#83,.F.);
#57=ORIENTED_EDGE('',*,*,#89,.T.);
#58=ORIENTED_EDGE('',*,*,#90,.F.);
#59=ORIENTED_EDGE('',*,*,#91,.F.);
#60=ORIENTED_EDGE('',*,*,#89,.F.);
#61=ORIENTED_EDGE('',*,*,#90,.T.);
#62=ORIENTED_EDGE('',*,*,#84,.F.);
#63=ORIENTED_EDGE('',*,*,#78,.F.);
#64=ORIENTED_EDGE('',*,*,#91,.T.);
#65=ORIENTED_EDGE('',*,*,#92,.F.);
#66=ORIENTED_EDGE('',*,*,#77,.T.);
#67=ORIENTED_EDGE('',*,*,#76,.F.);
#68=ORIENTED_EDGE('',*,*,#92,.T.);
#69=ORIENTED_EDGE('',*,*,#75,.T.);
#70=ORIENTED_EDGE('',*,*,#93,.F.);
#71=ORIENTED_EDGE('',*,*,#94,.F.);
#72=ORIENTED_EDGE('',*,*,#93,.T.);
#73=ORIENTED_EDGE('',*,*,#82,.T.);
#74=ORIENTED_EDGE('',*,*,#94,.T.);
#75=EDGE_CURVE('',#95,#95,#115,.T.);
#76=EDGE_CURVE('',#96,#96,#116,.T.);
#77=EDGE_CURVE('',#97,#97,#117,.T.);
#78=EDGE_CURVE('',#98,#98,#118,.T.);
#79=EDGE_CURVE('',#99,#99,#119,.T.);
#80=EDGE_CURVE('',#100,#100,#120,.T.);
#81=EDGE_CURVE('',#101,#101,#121,.T.);
#82=EDGE_CURVE('',#102,#102,#122,.T.);
#83=EDGE_CURVE('',#103,#103,#123,.T.);
#84=EDGE_CURVE('',#104,#104,#124,.T.);
#85=EDGE_CURVE('',#105,#105,#125,.T.);
#86=EDGE_CURVE('',#106,#106,#126,.T.);
#87=EDGE_CURVE('',#107,#107,#127,.T.);
#88=EDGE_CURVE('',#108,#108,#128,.T.);
#89=EDGE_CURVE('',#109,#109,#129,.T.);
#90=EDGE_CURVE('',#110,#110,#130,.T.);
#91=EDGE_CURVE('',#111,#111,#131,.T.);
#92=EDGE_CURVE('',#112,#112,#132,.T.);
#93=EDGE_CURVE('',#113,#113,#133,.T.);
#94=EDGE_CURVE('',#114,#114,#134,.T.);
#95=VERTEX_POINT('',#378);
#96=VERTEX_POINT('',#380);
#97=VERTEX_POINT('',#383);
#98=VERTEX_POINT('',#385);
#99=VERTEX_POINT('',#388);
#100=VERTEX_POINT('',#390);
#101=VERTEX_POINT('',#393);
#102=VERTEX_POINT('',#395);
#103=VERTEX_POINT('',#398);
#104=VERTEX_POINT('',#400);
#105=VERTEX_POINT('',#403);
#106=VERTEX_POINT('',#407);
#107=VERTEX_POINT('',#410);
#108=VERTEX_POINT('',#413);
#109=VERTEX_POINT('',#417);
#110=VERTEX_POINT('',#419);
#111=VERTEX_POINT('',#422);
#112=VERTEX_POINT('',#427);
#113=VERTEX_POINT('',#431);
#114=VERTEX_POINT('',#434);
#115=CIRCLE('',#254,2.8);
#116=CIRCLE('',#255,4.5);
#117=CIRCLE('',#257,4.2);
#118=CIRCLE('',#258,2.375);
#119=CIRCLE('',#260,5.6);
#120=CIRCLE('',#261,5.975);
#121=CIRCLE('',#263,4.5);
#122=CIRCLE('',#264,3.725);
#123=CIRCLE('',#266,5.675);
#124=CIRCLE('',#267,1.75000000000001);
#125=CIRCLE('',#269,5.975);
#126=CIRCLE('',#272,5.6);
#127=CIRCLE('',#274,5.975);
#128=CIRCLE('',#276,5.975);
#129=CIRCLE('',#279,2.075);
#130=CIRCLE('',#280,1.75000000000001);
#131=CIRCLE('',#282,2.075);
#132=CIRCLE('',#286,4.5);
#133=CIRCLE('',#289,2.6);
#134=CIRCLE('',#291,2.6);
#135=EDGE_LOOP('',(#35));
#136=EDGE_LOOP('',(#36));
#137=EDGE_LOOP('',(#37));
#138=EDGE_LOOP('',(#38));
#139=EDGE_LOOP('',(#39));
#140=EDGE_LOOP('',(#40));
#141=EDGE_LOOP('',(#41));
#142=EDGE_LOOP('',(#42));
#143=EDGE_LOOP('',(#43));
#144=EDGE_LOOP('',(#44));
#145=EDGE_LOOP('',(#45));
#146=EDGE_LOOP('',(#46));
#147=EDGE_LOOP('',(#47));
#148=EDGE_LOOP('',(#48));
#149=EDGE_LOOP('',(#49));
#150=EDGE_LOOP('',(#50));
#151=EDGE_LOOP('',(#51));
#152=EDGE_LOOP('',(#52));
#153=EDGE_LOOP('',(#53));
#154=EDGE_LOOP('',(#54));
#155=EDGE_LOOP('',(#55));
#156=EDGE_LOOP('',(#56));
#157=EDGE_LOOP('',(#57));
#158=EDGE_LOOP('',(#58));
#159=EDGE_LOOP('',(#59));
#160=EDGE_LOOP('',(#60));
#161=EDGE_LOOP('',(#61));
#162=EDGE_LOOP('',(#62));
#163=EDGE_LOOP('',(#63));
#164=EDGE_LOOP('',(#64));
#165=EDGE_LOOP('',(#65));
#166=EDGE_LOOP('',(#66));
#167=EDGE_LOOP('',(#67));
#168=EDGE_LOOP('',(#68));
#169=EDGE_LOOP('',(#69));
#170=EDGE_LOOP('',(#70));
#171=EDGE_LOOP('',(#71));
#172=EDGE_LOOP('',(#72));
#173=EDGE_LOOP('',(#73));
#174=EDGE_LOOP('',(#74));
#175=FACE_BOUND('',#135,.T.);
#176=FACE_BOUND('',#136,.T.);
#177=FACE_BOUND('',#137,.T.);
#178=FACE_BOUND('',#138,.T.);
#179=FACE_BOUND('',#139,.T.);
#180=FACE_BOUND('',#140,.T.);
#181=FACE_BOUND('',#141,.T.);
#182=FACE_BOUND('',#142,.T.);
#183=FACE_BOUND('',#143,.T.);
#184=FACE_BOUND('',#144,.T.);
#185=FACE_BOUND('',#145,.T.);
#186=FACE_BOUND('',#146,.T.);
#187=FACE_BOUND('',#147,.T.);
#188=FACE_BOUND('',#148,.T.);
#189=FACE_BOUND('',#149,.T.);
#190=FACE_BOUND('',#150,.T.);
#191=FACE_BOUND('',#151,.T.);
#192=FACE_BOUND('',#152,.T.);
#193=FACE_BOUND('',#153,.T.);
#194=FACE_BOUND('',#154,.T.);
#195=FACE_BOUND('',#155,.T.);
#196=FACE_BOUND('',#156,.T.);
#197=FACE_BOUND('',#157,.T.);
#198=FACE_BOUND('',#158,.T.);
#199=FACE_BOUND('',#159,.T.);
#200=FACE_BOUND('',#160,.T.);
#201=FACE_BOUND('',#161,.T.);
#202=FACE_BOUND('',#162,.T.);
#203=FACE_BOUND('',#163,.T.);
#204=FACE_BOUND('',#164,.T.);
#205=FACE_BOUND('',#165,.T.);
#206=FACE_BOUND('',#166,.T.);
#207=FACE_BOUND('',#167,.T.);
#208=FACE_BOUND('',#168,.T.);
#209=FACE_BOUND('',#169,.T.);
#210=FACE_BOUND('',#170,.T.);
#211=FACE_BOUND('',#171,.T.);
#212=FACE_BOUND('',#172,.T.);
#213=FACE_BOUND('',#173,.T.);
#214=FACE_BOUND('',#174,.T.);
#215=PLANE('',#253);
#216=PLANE('',#256);
#217=PLANE('',#259);
#218=PLANE('',#262);
#219=PLANE('',#265);
#220=ADVANCED_FACE('',(#175,#176),#215,.T.);
#221=ADVANCED_FACE('',(#177,#178),#216,.T.);
#222=ADVANCED_FACE('',(#179,#180),#217,.T.);
#223=ADVANCED_FACE('',(#181,#182),#218,.T.);
#224=ADVANCED_FACE('',(#183,#184),#219,.T.);
#225=ADVANCED_FACE('',(#185,#186),#27,.T.);
#226=ADVANCED_FACE('',(#187,#188),#20,.T.);
#227=ADVANCED_FACE('',(#189,#190),#21,.T.);
#228=ADVANCED_FACE('',(#191,#192),#28,.T.);
#229=ADVANCED_FACE('',(#193,#194),#22,.T.);
#230=ADVANCED_FACE('',(#195,#196),#29,.T.);
#231=ADVANCED_FACE('',(#197,#198),#30,.F.);
#232=ADVANCED_FACE('',(#199,#200),#23,.F.);
#233=ADVANCED_FACE('',(#201,#202),#24,.F.);
#234=ADVANCED_FACE('',(#203,#204),#31,.F.);
#235=ADVANCED_FACE('',(#205,#206),#32,.T.);
#236=ADVANCED_FACE('',(#207,#208),#25,.T.);
#237=ADVANCED_FACE('',(#209,#210),#33,.T.);
#238=ADVANCED_FACE('',(#211,#212),#26,.T.);
#239=ADVANCED_FACE('',(#213,#214),#34,.T.);
#240=CLOSED_SHELL('',(#220,#221,#222,#223,#224,#225,#226,#227,#228,#229,
#230,#231,#232,#233,#234,#235,#236,#237,#238,#239));
#241=STYLED_ITEM('',(#242),#249);
#242=PRESENTATION_STYLE_ASSIGNMENT((#243));
#243=SURFACE_STYLE_USAGE(.BOTH.,#244);
#244=SURFACE_SIDE_STYLE('',(#245));
#245=SURFACE_STYLE_FILL_AREA(#246);
#246=FILL_AREA_STYLE('',(#247));
#247=FILL_AREA_STYLE_COLOUR('',#248);
#248=COLOUR_RGB('',0.752941176470588,0.752941176470588,0.752941176470588);
#249=MANIFOLD_SOLID_BREP('A0151060',#240);
#250=SHAPE_DEFINITION_REPRESENTATION(#442,#251);
#251=SHAPE_REPRESENTATION('A0151060',(#252),#437);
#252=AXIS2_PLACEMENT_3D('',#375,#293,#294);
#253=AXIS2_PLACEMENT_3D('',#376,#295,#296);
#254=AXIS2_PLACEMENT_3D('',#377,#297,#298);
#255=AXIS2_PLACEMENT_3D('',#379,#299,#300);
#256=AXIS2_PLACEMENT_3D('',#381,#301,#302);
#257=AXIS2_PLACEMENT_3D('',#382,#303,#304);
#258=AXIS2_PLACEMENT_3D('',#384,#305,#306);
#259=AXIS2_PLACEMENT_3D('',#386,#307,#308);
#260=AXIS2_PLACEMENT_3D('',#387,#309,#310);
#261=AXIS2_PLACEMENT_3D('',#389,#311,#312);
#262=AXIS2_PLACEMENT_3D('',#391,#313,#314);
#263=AXIS2_PLACEMENT_3D('',#392,#315,#316);
#264=AXIS2_PLACEMENT_3D('',#394,#317,#318);
#265=AXIS2_PLACEMENT_3D('',#396,#319,#320);
#266=AXIS2_PLACEMENT_3D('',#397,#321,#322);
#267=AXIS2_PLACEMENT_3D('',#399,#323,#324);
#268=AXIS2_PLACEMENT_3D('',#401,#325,#326);
#269=AXIS2_PLACEMENT_3D('',#402,#327,#328);
#270=AXIS2_PLACEMENT_3D('',#404,#329,#330);
#271=AXIS2_PLACEMENT_3D('',#405,#331,#332);
#272=AXIS2_PLACEMENT_3D('',#406,#333,#334);
#273=AXIS2_PLACEMENT_3D('',#408,#335,#336);
#274=AXIS2_PLACEMENT_3D('',#409,#337,#338);
#275=AXIS2_PLACEMENT_3D('',#411,#339,#340);
#276=AXIS2_PLACEMENT_3D('',#412,#341,#342);
#277=AXIS2_PLACEMENT_3D('',#414,#343,#344);
#278=AXIS2_PLACEMENT_3D('',#415,#345,#346);
#279=AXIS2_PLACEMENT_3D('',#416,#347,#348);
#280=AXIS2_PLACEMENT_3D('',#418,#349,#350);
#281=AXIS2_PLACEMENT_3D('',#420,#351,#352);
#282=AXIS2_PLACEMENT_3D('',#421,#353,#354);
#283=AXIS2_PLACEMENT_3D('',#423,#355,#356);
#284=AXIS2_PLACEMENT_3D('',#424,#357,#358);
#285=AXIS2_PLACEMENT_3D('',#425,#359,#360);
#286=AXIS2_PLACEMENT_3D('',#426,#361,#362);
#287=AXIS2_PLACEMENT_3D('',#428,#363,#364);
#288=AXIS2_PLACEMENT_3D('',#429,#365,#366);
#289=AXIS2_PLACEMENT_3D('',#430,#367,#368);
#290=AXIS2_PLACEMENT_3D('',#432,#369,#370);
#291=AXIS2_PLACEMENT_3D('',#433,#371,#372);
#292=AXIS2_PLACEMENT_3D('',#435,#373,#374);
#293=DIRECTION('',(0.,0.,1.));
#294=DIRECTION('',(1.,0.,0.));
#295=DIRECTION('',(4.43734259186819E-31,-1.,-5.91645678915759E-31));
#296=DIRECTION('',(-4.44089209850063E-16,5.91645678915759E-31,-1.));
#297=DIRECTION('',(4.43734259186819E-31,-1.,5.91645678915759E-31));
#298=DIRECTION('',(-4.44089209850062E-16,0.,-1.));
#299=DIRECTION('',(4.43734259186819E-31,-1.,5.91645678915759E-31));
#300=DIRECTION('',(-4.44089209850063E-16,0.,-1.));
#301=DIRECTION('',(-4.43734259186819E-31,1.,5.91645678915759E-31));
#302=DIRECTION('',(4.44089209850063E-16,-5.91645678915759E-31,1.));
#303=DIRECTION('',(4.43734259186819E-31,-1.,5.91645678915759E-31));
#304=DIRECTION('',(-4.44089209850063E-16,0.,-1.));
#305=DIRECTION('',(4.43734259186819E-31,-1.,5.91645678915759E-31));
#306=DIRECTION('',(-4.44089209850063E-16,0.,-1.));
#307=DIRECTION('',(0.,-1.,0.));
#308=DIRECTION('',(0.,0.,-1.));
#309=DIRECTION('',(0.,-1.,0.));
#310=DIRECTION('',(0.,0.,-1.));
#311=DIRECTION('',(0.,-1.,0.));
#312=DIRECTION('',(0.,0.,-1.));
#313=DIRECTION('',(0.,1.,0.));
#314=DIRECTION('',(0.,0.,1.));
#315=DIRECTION('',(0.,-1.,0.));
#316=DIRECTION('',(0.,0.,-1.));
#317=DIRECTION('',(0.,1.,0.));
#318=DIRECTION('',(0.,0.,1.));
#319=DIRECTION('',(0.,-1.,0.));
#320=DIRECTION('',(0.,0.,-1.));
#321=DIRECTION('',(0.,-1.,0.));
#322=DIRECTION('',(0.,0.,-1.));
#323=DIRECTION('',(0.,1.,0.));
#324=DIRECTION('',(0.,0.,1.));
#325=DIRECTION('',(0.,-1.,0.));
#326=DIRECTION('',(0.,0.,-1.));
#327=DIRECTION('',(0.,-1.,0.));
#328=DIRECTION('',(0.,0.,-1.));
#329=DIRECTION('',(0.,-1.,0.));
#330=DIRECTION('',(0.,0.,-1.));
#331=DIRECTION('',(0.,-1.,0.));
#332=DIRECTION('',(0.,0.,-1.));
#333=DIRECTION('',(0.,-1.,0.));
#334=DIRECTION('',(0.,0.,-1.));
#335=DIRECTION('',(0.,-1.,0.));
#336=DIRECTION('',(0.,0.,-1.));
#337=DIRECTION('',(0.,-1.,0.));
#338=DIRECTION('',(0.,0.,-1.));
#339=DIRECTION('',(0.,-1.,0.));
#340=DIRECTION('',(0.,0.,-1.));
#341=DIRECTION('',(0.,-1.,0.));
#342=DIRECTION('',(0.,0.,-1.));
#343=DIRECTION('',(0.,1.,0.));
#344=DIRECTION('',(0.,0.,1.));
#345=DIRECTION('',(-1.48292289945294E-16,1.,0.));
#346=DIRECTION('',(-1.,-1.2819751242557E-16,0.));
#347=DIRECTION('',(-1.48292289945294E-16,1.,0.));
#348=DIRECTION('',(-1.,0.,0.));
#349=DIRECTION('',(-1.48292289945294E-16,1.,0.));
#350=DIRECTION('',(-1.,0.,0.));
#351=DIRECTION('',(-1.48292289945294E-16,1.,0.));
#352=DIRECTION('',(-1.,0.,0.));
#353=DIRECTION('',(4.43734259186819E-31,-1.,5.91645678915759E-31));
#354=DIRECTION('',(-4.44089209850063E-16,0.,-1.));
#355=DIRECTION('',(0.,1.,0.));
#356=DIRECTION('',(0.,0.,1.));
#357=DIRECTION('',(-4.43734259186819E-31,1.,-5.91645678915759E-31));
#358=DIRECTION('',(4.44089209850063E-16,0.,1.));
#359=DIRECTION('',(4.43734259186819E-31,-1.,5.91645678915759E-31));
#360=DIRECTION('',(-4.44089209850063E-16,0.,-1.));
#361=DIRECTION('',(4.43734259186819E-31,-1.,5.91645678915759E-31));
#362=DIRECTION('',(-4.44089209850063E-16,0.,-1.));
#363=DIRECTION('',(4.43734259186819E-31,-1.,5.91645678915759E-31));
#364=DIRECTION('',(-4.44089209850062E-16,0.,-1.));
#365=DIRECTION('',(-4.43734259186819E-31,1.,-5.91645678915759E-31));
#366=DIRECTION('',(4.44089209850063E-16,0.,1.));
#367=DIRECTION('',(4.43734259186819E-31,-1.,5.91645678915759E-31));
#368=DIRECTION('',(-4.44089209850062E-16,0.,-1.));
#369=DIRECTION('',(4.43734259186819E-31,-1.,5.91645678915759E-31));
#370=DIRECTION('',(-4.44089209850063E-16,0.,-1.));
#371=DIRECTION('',(4.43734259186819E-31,-1.,5.91645678915759E-31));
#372=DIRECTION('',(-4.44089209850063E-16,0.,-1.));
#373=DIRECTION('',(4.43734259186819E-31,-1.,5.91645678915759E-31));
#374=DIRECTION('',(-4.44089209850063E-16,0.,-1.));
#375=CARTESIAN_POINT('',(0.,0.,0.));
#376=CARTESIAN_POINT('',(2.8,31.4,1.24344978758018E-15));
#377=CARTESIAN_POINT('',(-2.58564157060619E-15,31.4,9.35303772112552E-30));
#378=CARTESIAN_POINT('',(-3.82909135818637E-15,31.4,-2.8));
#379=CARTESIAN_POINT('',(-2.58564157060619E-15,31.4,9.35303772112552E-30));
#380=CARTESIAN_POINT('',(-4.58404301493148E-15,31.4,-4.5));
#381=CARTESIAN_POINT('',(4.2,32.6,1.86517468137027E-15));
#382=CARTESIAN_POINT('',(-2.58564157060619E-15,32.6,8.58266574337063E-30));
#383=CARTESIAN_POINT('',(-4.45081625197646E-15,32.6,-4.2));
#384=CARTESIAN_POINT('',(-2.58564157060619E-15,32.6,8.58266574337063E-30));
#385=CARTESIAN_POINT('',(-3.64035344400009E-15,32.6,-2.375));
#386=CARTESIAN_POINT('',(5.975,8.97486537180812,0.));
#387=CARTESIAN_POINT('',(0.,8.97486537180812,0.));
#388=CARTESIAN_POINT('',(0.,8.97486537180812,-5.6));
#389=CARTESIAN_POINT('',(0.,8.97486537180812,0.));
#390=CARTESIAN_POINT('',(0.,8.97486537180812,-5.975));
#391=CARTESIAN_POINT('',(0.,30.,0.));
#392=CARTESIAN_POINT('',(0.,30.,0.));
#393=CARTESIAN_POINT('',(0.,30.,-4.5));
#394=CARTESIAN_POINT('',(-2.58564157060619E-15,30.,1.03127671310126E-29));
#395=CARTESIAN_POINT('',(-2.58564157060619E-15,30.,3.725));
#396=CARTESIAN_POINT('',(5.675,6.12323399573676E-17,0.));
#397=CARTESIAN_POINT('',(0.,1.22464679914735E-16,0.));
#398=CARTESIAN_POINT('',(0.,1.22464679914735E-16,-5.675));
#399=CARTESIAN_POINT('',(-3.18828423382382E-15,0.,0.));
#400=CARTESIAN_POINT('',(-3.18828423382382E-15,0.,1.75000000000001));
#401=CARTESIAN_POINT('',(0.,28.525,0.));
#402=CARTESIAN_POINT('',(0.,28.525,0.));
#403=CARTESIAN_POINT('',(0.,28.525,-5.975));
#404=CARTESIAN_POINT('',(0.,0.,0.));
#405=CARTESIAN_POINT('',(0.,0.,0.));
#406=CARTESIAN_POINT('',(0.,8.17486537180812,0.));
#407=CARTESIAN_POINT('',(0.,8.17486537180812,-5.6));
#408=CARTESIAN_POINT('',(0.,8.,0.));
#409=CARTESIAN_POINT('',(0.,8.,0.));
#410=CARTESIAN_POINT('',(0.,8.,-5.975));
#411=CARTESIAN_POINT('',(0.,0.,0.));
#412=CARTESIAN_POINT('',(0.,0.3,0.));
#413=CARTESIAN_POINT('',(0.,0.3,-5.975));
#414=CARTESIAN_POINT('',(0.,1.22464679914735E-16,0.));
#415=CARTESIAN_POINT('',(-1.46557566469317E-13,1018.30199819143,0.));
#416=CARTESIAN_POINT('',(1.55706904442559E-15,19.5,0.));
#417=CARTESIAN_POINT('',(-2.075,19.5,0.));
#418=CARTESIAN_POINT('',(1.58489443731915E-15,19.3123611625134,0.));
#419=CARTESIAN_POINT('',(-1.75000000000001,19.3123611625134,0.));
#420=CARTESIAN_POINT('',(0.,30.,0.));
#421=CARTESIAN_POINT('',(-2.58564157060619E-15,32.0803847577293,8.87155523502871E-30));
#422=CARTESIAN_POINT('',(-3.50712668104507E-15,32.0803847577293,-2.075));
#423=CARTESIAN_POINT('',(-3.18828423382382E-15,21.5,0.));
#424=CARTESIAN_POINT('',(-2.58564157060619E-15,32.6,8.58266574337063E-30));
#425=CARTESIAN_POINT('',(-2.5856415706062E-15,32.3,8.96785173224807E-30));
#426=CARTESIAN_POINT('',(-2.5856415706062E-15,32.3,8.96785173224807E-30));
#427=CARTESIAN_POINT('',(-4.58404301493148E-15,32.3,-4.5));
#428=CARTESIAN_POINT('',(-2.58564157060619E-15,25.6,1.29160081182419E-29));
#429=CARTESIAN_POINT('',(-2.58564157060619E-15,31.2,9.35303772112552E-30));
#430=CARTESIAN_POINT('',(-2.58564157060619E-15,31.2,9.35303772112552E-30));
#431=CARTESIAN_POINT('',(-3.74027351621636E-15,31.2,-2.6));
#432=CARTESIAN_POINT('',(-2.58564157060619E-15,25.6,1.29160081182419E-29));
#433=CARTESIAN_POINT('',(-2.58564157060619E-15,30.198367853297,1.03160026933191E-29));
#434=CARTESIAN_POINT('',(-3.74027351621636E-15,30.198367853297,-2.6));
#435=CARTESIAN_POINT('',(-2.58564157060619E-15,30.,1.03160026933191E-29));
#436=MECHANICAL_DESIGN_GEOMETRIC_PRESENTATION_REPRESENTATION('',(#241),
#437);
#437=(
GEOMETRIC_REPRESENTATION_CONTEXT(3)
GLOBAL_UNCERTAINTY_ASSIGNED_CONTEXT((#438))
GLOBAL_UNIT_ASSIGNED_CONTEXT((#441,#440,#439))
REPRESENTATION_CONTEXT('A0151060','TOP_LEVEL_ASSEMBLY_PART')
);
#438=UNCERTAINTY_MEASURE_WITH_UNIT(LENGTH_MEASURE(0.005),#441,
'DISTANCE_ACCURACY_VALUE','Maximum Tolerance applied to model');
#439=(
NAMED_UNIT(*)
SI_UNIT($,.STERADIAN.)
SOLID_ANGLE_UNIT()
);
#440=(
NAMED_UNIT(*)
PLANE_ANGLE_UNIT()
SI_UNIT($,.RADIAN.)
);
#441=(
LENGTH_UNIT()
NAMED_UNIT(*)
SI_UNIT(.MILLI.,.METRE.)
);
#442=PRODUCT_DEFINITION_SHAPE('','',#443);
#443=PRODUCT_DEFINITION('','',#445,#444);
#444=PRODUCT_DEFINITION_CONTEXT('',#451,'design');
#445=PRODUCT_DEFINITION_FORMATION_WITH_SPECIFIED_SOURCE('','',#447,
 .NOT_KNOWN.);
#446=PRODUCT_RELATED_PRODUCT_CATEGORY('','',(#447));
#447=PRODUCT('A0151060','A0151060','A0151060',(#449));
#448=PRODUCT_CATEGORY('','');
#449=PRODUCT_CONTEXT('',#451,'mechanical');
#450=APPLICATION_PROTOCOL_DEFINITION('international standard',
'automotive_design',2010,#451);
#451=APPLICATION_CONTEXT(
'core data for automotive mechanical design processes');
ENDSEC;
END-ISO-10303-21;
