ISO-10303-21;
HEADER;
/* Generated by software containing ST-Developer
 * from STEP Tools, Inc. (www.steptools.com) 
 */

FILE_DESCRIPTION(
/* description */ (''),
/* implementation_level */ '2;1');

FILE_NAME(
/* name */ 'H:\\cad\\neutral\\3d\\72179\\vk_14_ms.stp',
/* time_stamp */ '2017-02-03T09:33:44+01:00',
/* author */ ('hamoud'),
/* organization */ (''),
/* preprocessor_version */ 'ST-DEVELOPER v15.6',
/* originating_system */ 'Autodesk Inventor LT ',
/* authorisation */ '');

FILE_SCHEMA (('AUTOMOTIVE_DESIGN { 1 0 10303 214 3 1 1 }'));
ENDSEC;

DATA;
#10=MECHANICAL_DESIGN_GEOMETRIC_PRESENTATION_REPRESENTATION('',(#13),#337);
#11=SHAPE_REPRESENTATION_RELATIONSHIP('SRR','None',#346,#12);
#12=ADVANCED_BREP_SHAPE_REPRESENTATION($,(#14),#336);
#13=STYLED_ITEM('',(#356),#14);
#14=MANIFOLD_SOLID_BREP('1',#192);
#15=CYLINDRICAL_SURFACE('',#198,5.9);
#16=FACE_BOUND('',#44,.T.);
#17=FACE_BOUND('',#46,.T.);
#18=FACE_BOUND('',#48,.T.);
#19=FACE_BOUND('',#51,.T.);
#20=FACE_BOUND('',#53,.T.);
#21=CIRCLE('',#196,5.9);
#22=CIRCLE('',#197,6.7);
#23=CIRCLE('',#199,5.9);
#24=CIRCLE('',#201,7.5);
#25=CIRCLE('',#205,7.5);
#26=CONICAL_SURFACE('',#195,6.3,45.);
#27=CONICAL_SURFACE('',#203,8.368802153517,75.);
#28=CONICAL_SURFACE('',#204,8.368802153517,75.);
#29=FACE_OUTER_BOUND('',#42,.T.);
#30=FACE_OUTER_BOUND('',#43,.T.);
#31=FACE_OUTER_BOUND('',#45,.T.);
#32=FACE_OUTER_BOUND('',#47,.T.);
#33=FACE_OUTER_BOUND('',#49,.T.);
#34=FACE_OUTER_BOUND('',#50,.T.);
#35=FACE_OUTER_BOUND('',#52,.T.);
#36=FACE_OUTER_BOUND('',#54,.T.);
#37=FACE_OUTER_BOUND('',#55,.T.);
#38=FACE_OUTER_BOUND('',#56,.T.);
#39=FACE_OUTER_BOUND('',#57,.T.);
#40=FACE_OUTER_BOUND('',#58,.T.);
#41=FACE_OUTER_BOUND('',#59,.T.);
#42=EDGE_LOOP('',(#124,#125,#126,#127));
#43=EDGE_LOOP('',(#128));
#44=EDGE_LOOP('',(#129));
#45=EDGE_LOOP('',(#130));
#46=EDGE_LOOP('',(#131));
#47=EDGE_LOOP('',(#132));
#48=EDGE_LOOP('',(#133));
#49=EDGE_LOOP('',(#134));
#50=EDGE_LOOP('',(#135,#136,#137,#138,#139,#140));
#51=EDGE_LOOP('',(#141));
#52=EDGE_LOOP('',(#142,#143,#144,#145,#146,#147));
#53=EDGE_LOOP('',(#148));
#54=EDGE_LOOP('',(#149,#150,#151,#152));
#55=EDGE_LOOP('',(#153,#154,#155,#156));
#56=EDGE_LOOP('',(#157,#158,#159,#160));
#57=EDGE_LOOP('',(#161,#162,#163,#164));
#58=EDGE_LOOP('',(#165,#166,#167,#168));
#59=EDGE_LOOP('',(#169));
#60=LINE('',#264,#66);
#61=LINE('',#269,#67);
#62=LINE('',#325,#68);
#63=LINE('',#327,#69);
#64=LINE('',#329,#70);
#65=LINE('',#331,#71);
#66=VECTOR('',#216,10.0688206583308);
#67=VECTOR('',#217,10.0688206583308);
#68=VECTOR('',#242,10.0688206583308);
#69=VECTOR('',#245,10.0688206583308);
#70=VECTOR('',#248,10.0688206583308);
#71=VECTOR('',#251,10.0688206583308);
#72=(
BOUNDED_CURVE()
B_SPLINE_CURVE(2,(#260,#261,#262),.UNSPECIFIED.,.F.,.F.)
B_SPLINE_CURVE_WITH_KNOTS((3,3),(0.,0.926138259463411),.UNSPECIFIED.)
CURVE()
GEOMETRIC_REPRESENTATION_ITEM()
RATIONAL_B_SPLINE_CURVE((1.,1.15470053837925,1.))
REPRESENTATION_ITEM('')
);
#73=(
BOUNDED_CURVE()
B_SPLINE_CURVE(2,(#266,#267,#268),.UNSPECIFIED.,.F.,.F.)
B_SPLINE_CURVE_WITH_KNOTS((3,3),(0.,0.926138259463409),.UNSPECIFIED.)
CURVE()
GEOMETRIC_REPRESENTATION_ITEM()
RATIONAL_B_SPLINE_CURVE((1.,1.15470053837924,1.))
REPRESENTATION_ITEM('')
);
#74=(
BOUNDED_CURVE()
B_SPLINE_CURVE(2,(#285,#286,#287),.UNSPECIFIED.,.F.,.F.)
B_SPLINE_CURVE_WITH_KNOTS((3,3),(0.,0.926138259463411),.UNSPECIFIED.)
CURVE()
GEOMETRIC_REPRESENTATION_ITEM()
RATIONAL_B_SPLINE_CURVE((1.,1.15470053837925,1.))
REPRESENTATION_ITEM('')
);
#75=(
BOUNDED_CURVE()
B_SPLINE_CURVE(2,(#289,#290,#291),.UNSPECIFIED.,.F.,.F.)
B_SPLINE_CURVE_WITH_KNOTS((3,3),(0.,0.926138259463412),.UNSPECIFIED.)
CURVE()
GEOMETRIC_REPRESENTATION_ITEM()
RATIONAL_B_SPLINE_CURVE((1.,1.15470053837925,1.))
REPRESENTATION_ITEM('')
);
#76=(
BOUNDED_CURVE()
B_SPLINE_CURVE(2,(#292,#293,#294),.UNSPECIFIED.,.F.,.F.)
B_SPLINE_CURVE_WITH_KNOTS((3,3),(0.,0.926138259463412),.UNSPECIFIED.)
CURVE()
GEOMETRIC_REPRESENTATION_ITEM()
RATIONAL_B_SPLINE_CURVE((1.,1.15470053837925,1.))
REPRESENTATION_ITEM('')
);
#77=(
BOUNDED_CURVE()
B_SPLINE_CURVE(2,(#296,#297,#298),.UNSPECIFIED.,.F.,.F.)
B_SPLINE_CURVE_WITH_KNOTS((3,3),(0.,0.926138259463412),.UNSPECIFIED.)
CURVE()
GEOMETRIC_REPRESENTATION_ITEM()
RATIONAL_B_SPLINE_CURVE((1.,1.15470053837925,1.))
REPRESENTATION_ITEM('')
);
#78=(
BOUNDED_CURVE()
B_SPLINE_CURVE(2,(#299,#300,#301),.UNSPECIFIED.,.F.,.F.)
B_SPLINE_CURVE_WITH_KNOTS((3,3),(0.,0.926138259463412),.UNSPECIFIED.)
CURVE()
GEOMETRIC_REPRESENTATION_ITEM()
RATIONAL_B_SPLINE_CURVE((1.,1.15470053837925,1.))
REPRESENTATION_ITEM('')
);
#79=(
BOUNDED_CURVE()
B_SPLINE_CURVE(2,(#305,#306,#307),.UNSPECIFIED.,.F.,.F.)
B_SPLINE_CURVE_WITH_KNOTS((3,3),(0.,0.926138259463409),.UNSPECIFIED.)
CURVE()
GEOMETRIC_REPRESENTATION_ITEM()
RATIONAL_B_SPLINE_CURVE((1.,1.15470053837924,1.))
REPRESENTATION_ITEM('')
);
#80=(
BOUNDED_CURVE()
B_SPLINE_CURVE(2,(#309,#310,#311),.UNSPECIFIED.,.F.,.F.)
B_SPLINE_CURVE_WITH_KNOTS((3,3),(0.,0.926138259463409),.UNSPECIFIED.)
CURVE()
GEOMETRIC_REPRESENTATION_ITEM()
RATIONAL_B_SPLINE_CURVE((1.,1.15470053837924,1.))
REPRESENTATION_ITEM('')
);
#81=(
BOUNDED_CURVE()
B_SPLINE_CURVE(2,(#312,#313,#314),.UNSPECIFIED.,.F.,.F.)
B_SPLINE_CURVE_WITH_KNOTS((3,3),(0.,0.926138259463409),.UNSPECIFIED.)
CURVE()
GEOMETRIC_REPRESENTATION_ITEM()
RATIONAL_B_SPLINE_CURVE((1.,1.15470053837924,1.))
REPRESENTATION_ITEM('')
);
#82=(
BOUNDED_CURVE()
B_SPLINE_CURVE(2,(#316,#317,#318),.UNSPECIFIED.,.F.,.F.)
B_SPLINE_CURVE_WITH_KNOTS((3,3),(0.,0.92613825946341),.UNSPECIFIED.)
CURVE()
GEOMETRIC_REPRESENTATION_ITEM()
RATIONAL_B_SPLINE_CURVE((1.,1.15470053837924,1.))
REPRESENTATION_ITEM('')
);
#83=(
BOUNDED_CURVE()
B_SPLINE_CURVE(2,(#319,#320,#321),.UNSPECIFIED.,.F.,.F.)
B_SPLINE_CURVE_WITH_KNOTS((3,3),(0.,0.92613825946341),.UNSPECIFIED.)
CURVE()
GEOMETRIC_REPRESENTATION_ITEM()
RATIONAL_B_SPLINE_CURVE((1.,1.15470053837924,1.))
REPRESENTATION_ITEM('')
);
#84=VERTEX_POINT('',#258);
#85=VERTEX_POINT('',#259);
#86=VERTEX_POINT('',#263);
#87=VERTEX_POINT('',#265);
#88=VERTEX_POINT('',#271);
#89=VERTEX_POINT('',#273);
#90=VERTEX_POINT('',#276);
#91=VERTEX_POINT('',#279);
#92=VERTEX_POINT('',#283);
#93=VERTEX_POINT('',#284);
#94=VERTEX_POINT('',#288);
#95=VERTEX_POINT('',#295);
#96=VERTEX_POINT('',#303);
#97=VERTEX_POINT('',#304);
#98=VERTEX_POINT('',#308);
#99=VERTEX_POINT('',#315);
#100=VERTEX_POINT('',#322);
#101=EDGE_CURVE('',#84,#85,#72,.T.);
#102=EDGE_CURVE('',#85,#86,#60,.T.);
#103=EDGE_CURVE('',#86,#87,#73,.T.);
#104=EDGE_CURVE('',#84,#87,#61,.T.);
#105=EDGE_CURVE('',#88,#88,#21,.T.);
#106=EDGE_CURVE('',#89,#89,#22,.T.);
#107=EDGE_CURVE('',#90,#90,#23,.T.);
#108=EDGE_CURVE('',#91,#91,#24,.T.);
#109=EDGE_CURVE('',#92,#93,#74,.T.);
#110=EDGE_CURVE('',#94,#92,#75,.T.);
#111=EDGE_CURVE('',#85,#94,#76,.T.);
#112=EDGE_CURVE('',#95,#84,#77,.T.);
#113=EDGE_CURVE('',#93,#95,#78,.T.);
#114=EDGE_CURVE('',#96,#97,#79,.T.);
#115=EDGE_CURVE('',#98,#96,#80,.T.);
#116=EDGE_CURVE('',#87,#98,#81,.T.);
#117=EDGE_CURVE('',#99,#86,#82,.T.);
#118=EDGE_CURVE('',#97,#99,#83,.T.);
#119=EDGE_CURVE('',#100,#100,#25,.T.);
#120=EDGE_CURVE('',#94,#99,#62,.T.);
#121=EDGE_CURVE('',#92,#97,#63,.T.);
#122=EDGE_CURVE('',#93,#96,#64,.T.);
#123=EDGE_CURVE('',#95,#98,#65,.T.);
#124=ORIENTED_EDGE('',*,*,#101,.T.);
#125=ORIENTED_EDGE('',*,*,#102,.T.);
#126=ORIENTED_EDGE('',*,*,#103,.T.);
#127=ORIENTED_EDGE('',*,*,#104,.F.);
#128=ORIENTED_EDGE('',*,*,#105,.T.);
#129=ORIENTED_EDGE('',*,*,#106,.T.);
#130=ORIENTED_EDGE('',*,*,#107,.F.);
#131=ORIENTED_EDGE('',*,*,#105,.F.);
#132=ORIENTED_EDGE('',*,*,#108,.T.);
#133=ORIENTED_EDGE('',*,*,#106,.F.);
#134=ORIENTED_EDGE('',*,*,#107,.T.);
#135=ORIENTED_EDGE('',*,*,#109,.F.);
#136=ORIENTED_EDGE('',*,*,#110,.F.);
#137=ORIENTED_EDGE('',*,*,#111,.F.);
#138=ORIENTED_EDGE('',*,*,#101,.F.);
#139=ORIENTED_EDGE('',*,*,#112,.F.);
#140=ORIENTED_EDGE('',*,*,#113,.F.);
#141=ORIENTED_EDGE('',*,*,#108,.F.);
#142=ORIENTED_EDGE('',*,*,#114,.F.);
#143=ORIENTED_EDGE('',*,*,#115,.F.);
#144=ORIENTED_EDGE('',*,*,#116,.F.);
#145=ORIENTED_EDGE('',*,*,#103,.F.);
#146=ORIENTED_EDGE('',*,*,#117,.F.);
#147=ORIENTED_EDGE('',*,*,#118,.F.);
#148=ORIENTED_EDGE('',*,*,#119,.F.);
#149=ORIENTED_EDGE('',*,*,#111,.T.);
#150=ORIENTED_EDGE('',*,*,#120,.T.);
#151=ORIENTED_EDGE('',*,*,#117,.T.);
#152=ORIENTED_EDGE('',*,*,#102,.F.);
#153=ORIENTED_EDGE('',*,*,#110,.T.);
#154=ORIENTED_EDGE('',*,*,#121,.T.);
#155=ORIENTED_EDGE('',*,*,#118,.T.);
#156=ORIENTED_EDGE('',*,*,#120,.F.);
#157=ORIENTED_EDGE('',*,*,#109,.T.);
#158=ORIENTED_EDGE('',*,*,#122,.T.);
#159=ORIENTED_EDGE('',*,*,#114,.T.);
#160=ORIENTED_EDGE('',*,*,#121,.F.);
#161=ORIENTED_EDGE('',*,*,#112,.T.);
#162=ORIENTED_EDGE('',*,*,#104,.T.);
#163=ORIENTED_EDGE('',*,*,#116,.T.);
#164=ORIENTED_EDGE('',*,*,#123,.F.);
#165=ORIENTED_EDGE('',*,*,#113,.T.);
#166=ORIENTED_EDGE('',*,*,#123,.T.);
#167=ORIENTED_EDGE('',*,*,#115,.T.);
#168=ORIENTED_EDGE('',*,*,#122,.F.);
#169=ORIENTED_EDGE('',*,*,#119,.T.);
#170=PLANE('',#194);
#171=PLANE('',#200);
#172=PLANE('',#202);
#173=PLANE('',#206);
#174=PLANE('',#207);
#175=PLANE('',#208);
#176=PLANE('',#209);
#177=PLANE('',#210);
#178=PLANE('',#211);
#179=ADVANCED_FACE('',(#29),#170,.F.);
#180=ADVANCED_FACE('',(#30,#16),#26,.F.);
#181=ADVANCED_FACE('',(#31,#17),#15,.F.);
#182=ADVANCED_FACE('',(#32,#18),#171,.F.);
#183=ADVANCED_FACE('',(#33),#172,.T.);
#184=ADVANCED_FACE('',(#34,#19),#27,.T.);
#185=ADVANCED_FACE('',(#35,#20),#28,.T.);
#186=ADVANCED_FACE('',(#36),#173,.T.);
#187=ADVANCED_FACE('',(#37),#174,.T.);
#188=ADVANCED_FACE('',(#38),#175,.T.);
#189=ADVANCED_FACE('',(#39),#176,.T.);
#190=ADVANCED_FACE('',(#40),#177,.T.);
#191=ADVANCED_FACE('',(#41),#178,.T.);
#192=CLOSED_SHELL('',(#179,#180,#181,#182,#183,#184,#185,#186,#187,#188,
#189,#190,#191));
#193=AXIS2_PLACEMENT_3D('placement',#256,#212,#213);
#194=AXIS2_PLACEMENT_3D('',#257,#214,#215);
#195=AXIS2_PLACEMENT_3D('',#270,#218,#219);
#196=AXIS2_PLACEMENT_3D('',#272,#220,#221);
#197=AXIS2_PLACEMENT_3D('',#274,#222,#223);
#198=AXIS2_PLACEMENT_3D('',#275,#224,#225);
#199=AXIS2_PLACEMENT_3D('',#277,#226,#227);
#200=AXIS2_PLACEMENT_3D('',#278,#228,#229);
#201=AXIS2_PLACEMENT_3D('',#280,#230,#231);
#202=AXIS2_PLACEMENT_3D('',#281,#232,#233);
#203=AXIS2_PLACEMENT_3D('',#282,#234,#235);
#204=AXIS2_PLACEMENT_3D('',#302,#236,#237);
#205=AXIS2_PLACEMENT_3D('',#323,#238,#239);
#206=AXIS2_PLACEMENT_3D('',#324,#240,#241);
#207=AXIS2_PLACEMENT_3D('',#326,#243,#244);
#208=AXIS2_PLACEMENT_3D('',#328,#246,#247);
#209=AXIS2_PLACEMENT_3D('',#330,#249,#250);
#210=AXIS2_PLACEMENT_3D('',#332,#252,#253);
#211=AXIS2_PLACEMENT_3D('',#333,#254,#255);
#212=DIRECTION('axis',(0.,0.,1.));
#213=DIRECTION('refdir',(1.,0.,0.));
#214=DIRECTION('center_axis',(-6.9611419217513E-16,1.,2.49232133953853E-16));
#215=DIRECTION('ref_axis',(0.,0.,1.));
#216=DIRECTION('',(0.,0.,1.));
#217=DIRECTION('',(0.,0.,1.));
#218=DIRECTION('center_axis',(0.,0.,-1.));
#219=DIRECTION('ref_axis',(1.,0.,0.));
#220=DIRECTION('center_axis',(0.,0.,1.));
#221=DIRECTION('ref_axis',(1.,0.,0.));
#222=DIRECTION('center_axis',(0.,0.,-1.));
#223=DIRECTION('ref_axis',(1.,0.,0.));
#224=DIRECTION('center_axis',(0.,0.,-1.));
#225=DIRECTION('ref_axis',(-1.,0.,0.));
#226=DIRECTION('center_axis',(0.,0.,-1.));
#227=DIRECTION('ref_axis',(-1.,0.,0.));
#228=DIRECTION('center_axis',(0.,0.,1.));
#229=DIRECTION('ref_axis',(1.,0.,0.));
#230=DIRECTION('center_axis',(0.,0.,-1.));
#231=DIRECTION('ref_axis',(-1.,0.,0.));
#232=DIRECTION('center_axis',(0.,0.,-1.));
#233=DIRECTION('ref_axis',(-1.,0.,0.));
#234=DIRECTION('center_axis',(0.,0.,1.));
#235=DIRECTION('ref_axis',(-1.,0.,0.));
#236=DIRECTION('center_axis',(0.,0.,-1.));
#237=DIRECTION('ref_axis',(-1.,0.,0.));
#238=DIRECTION('center_axis',(0.,0.,1.));
#239=DIRECTION('ref_axis',(-1.,0.,0.));
#240=DIRECTION('center_axis',(0.866025403784439,-0.5,0.));
#241=DIRECTION('ref_axis',(0.,0.,-1.));
#242=DIRECTION('',(0.,0.,1.));
#243=DIRECTION('center_axis',(0.866025403784438,0.500000000000001,0.));
#244=DIRECTION('ref_axis',(0.,0.,-1.));
#245=DIRECTION('',(0.,0.,1.));
#246=DIRECTION('center_axis',(-1.08166651109076E-15,1.,0.));
#247=DIRECTION('ref_axis',(0.,0.,1.));
#248=DIRECTION('',(0.,0.,1.));
#249=DIRECTION('center_axis',(-0.866025403784438,-0.500000000000001,0.));
#250=DIRECTION('ref_axis',(0.,0.,1.));
#251=DIRECTION('',(0.,0.,1.));
#252=DIRECTION('center_axis',(-0.866025403784439,0.499999999999999,0.));
#253=DIRECTION('ref_axis',(0.,0.,1.));
#254=DIRECTION('center_axis',(0.,0.,1.));
#255=DIRECTION('ref_axis',(1.,0.,0.));
#256=CARTESIAN_POINT('',(0.,0.,0.));
#257=CARTESIAN_POINT('Origin',(0.866038966359032,-8.,5.13185670204595));
#258=CARTESIAN_POINT('',(-4.618802153517,-8.,0.465589670834604));
#259=CARTESIAN_POINT('',(4.61880215351701,-7.99999999999999,0.465589670834604));
#260=CARTESIAN_POINT('Ctrl Pts',(-4.618802153517,-8.,0.465589670834604));
#261=CARTESIAN_POINT('Ctrl Pts',(5.55111512312578E-15,-8.,-0.153212482682403));
#262=CARTESIAN_POINT('Ctrl Pts',(4.61880215351701,-8.,0.465589670834604));
#263=CARTESIAN_POINT('',(4.61880215351701,-7.99999999999999,10.5344103291654));
#264=CARTESIAN_POINT('',(4.61880215351701,-8.,0.));
#265=CARTESIAN_POINT('',(-4.618802153517,-8.,10.5344103291654));
#266=CARTESIAN_POINT('Ctrl Pts',(4.618802153517,-8.,10.5344103291654));
#267=CARTESIAN_POINT('Ctrl Pts',(3.88578058618805E-15,-8.,11.1532124826824));
#268=CARTESIAN_POINT('Ctrl Pts',(-4.61880215351699,-8.,10.5344103291654));
#269=CARTESIAN_POINT('',(-4.618802153517,-8.,0.));
#270=CARTESIAN_POINT('Origin',(0.,0.,0.4));
#271=CARTESIAN_POINT('',(-5.9,-7.22517748755203E-16,0.8));
#272=CARTESIAN_POINT('Origin',(0.,0.,0.8));
#273=CARTESIAN_POINT('',(-6.7,8.20486257060993E-16,0.));
#274=CARTESIAN_POINT('Origin',(0.,0.,0.));
#275=CARTESIAN_POINT('Origin',(0.,0.,4.5));
#276=CARTESIAN_POINT('',(-5.9,0.,9.));
#277=CARTESIAN_POINT('Origin',(0.,0.,9.));
#278=CARTESIAN_POINT('Origin',(8.32667268468867E-16,4.16333634234434E-16,
0.));
#279=CARTESIAN_POINT('',(-7.5,0.,0.));
#280=CARTESIAN_POINT('Origin',(0.,0.,0.));
#281=CARTESIAN_POINT('Origin',(0.,0.,9.));
#282=CARTESIAN_POINT('Origin',(0.,0.,0.232794835417302));
#283=CARTESIAN_POINT('',(4.61880215351699,8.,0.465589670834604));
#284=CARTESIAN_POINT('',(-4.61880215351701,7.99999999999999,0.465589670834604));
#285=CARTESIAN_POINT('Ctrl Pts',(4.618802153517,8.,0.465589670834604));
#286=CARTESIAN_POINT('Ctrl Pts',(-9.99200722162641E-15,8.,-0.153212482682403));
#287=CARTESIAN_POINT('Ctrl Pts',(-4.61880215351701,7.99999999999999,0.465589670834604));
#288=CARTESIAN_POINT('',(9.23760430703401,7.7715611723761E-15,0.465589670834604));
#289=CARTESIAN_POINT('Ctrl Pts',(9.23760430703401,1.22548015903753E-15,
0.465589670834605));
#290=CARTESIAN_POINT('Ctrl Pts',(6.9282032302755,4.,-0.153212482682403));
#291=CARTESIAN_POINT('Ctrl Pts',(4.618802153517,8.00000000000001,0.465589670834605));
#292=CARTESIAN_POINT('Ctrl Pts',(4.61880215351701,-8.,0.465589670834604));
#293=CARTESIAN_POINT('Ctrl Pts',(6.92820323027551,-4.,-0.153212482682403));
#294=CARTESIAN_POINT('Ctrl Pts',(9.23760430703401,5.5146607156689E-15,0.465589670834605));
#295=CARTESIAN_POINT('',(-9.23760430703401,0.,0.465589670834604));
#296=CARTESIAN_POINT('Ctrl Pts',(-9.23760430703401,-5.5146607156689E-15,
0.465589670834605));
#297=CARTESIAN_POINT('Ctrl Pts',(-6.92820323027551,-4.,-0.153212482682402));
#298=CARTESIAN_POINT('Ctrl Pts',(-4.618802153517,-8.,0.465589670834605));
#299=CARTESIAN_POINT('Ctrl Pts',(-4.61880215351701,8.,0.465589670834605));
#300=CARTESIAN_POINT('Ctrl Pts',(-6.92820323027551,3.99999999999999,-0.153212482682403));
#301=CARTESIAN_POINT('Ctrl Pts',(-9.23760430703401,-1.34802817494129E-14,
0.465589670834605));
#302=CARTESIAN_POINT('Origin',(0.,0.,10.7672051645827));
#303=CARTESIAN_POINT('',(-4.61880215351701,7.99999999999999,10.5344103291654));
#304=CARTESIAN_POINT('',(4.61880215351699,8.,10.5344103291654));
#305=CARTESIAN_POINT('Ctrl Pts',(-4.618802153517,7.99999999999999,10.5344103291654));
#306=CARTESIAN_POINT('Ctrl Pts',(-8.32667268468867E-15,8.,11.1532124826824));
#307=CARTESIAN_POINT('Ctrl Pts',(4.61880215351699,8.,10.5344103291654));
#308=CARTESIAN_POINT('',(-9.23760430703401,0.,10.5344103291654));
#309=CARTESIAN_POINT('Ctrl Pts',(-9.237604307034,6.12740079518767E-16,10.5344103291654));
#310=CARTESIAN_POINT('Ctrl Pts',(-6.92820323027551,3.99999999999999,11.1532124826824));
#311=CARTESIAN_POINT('Ctrl Pts',(-4.61880215351702,7.99999999999998,10.5344103291654));
#312=CARTESIAN_POINT('Ctrl Pts',(-4.61880215351701,-7.99999999999999,10.5344103291654));
#313=CARTESIAN_POINT('Ctrl Pts',(-6.92820323027551,-4.,11.1532124826824));
#314=CARTESIAN_POINT('Ctrl Pts',(-9.23760430703401,-1.47057619084504E-14,
10.5344103291654));
#315=CARTESIAN_POINT('',(9.23760430703401,7.7715611723761E-15,10.5344103291654));
#316=CARTESIAN_POINT('Ctrl Pts',(9.23760430703401,-4.28918055663137E-15,
10.5344103291654));
#317=CARTESIAN_POINT('Ctrl Pts',(6.92820323027551,-4.,11.1532124826824));
#318=CARTESIAN_POINT('Ctrl Pts',(4.61880215351701,-7.99999999999999,10.5344103291654));
#319=CARTESIAN_POINT('Ctrl Pts',(4.618802153517,7.99999999999999,10.5344103291654));
#320=CARTESIAN_POINT('Ctrl Pts',(6.9282032302755,4.,11.1532124826824));
#321=CARTESIAN_POINT('Ctrl Pts',(9.23760430703401,1.22548015903753E-14,
10.5344103291654));
#322=CARTESIAN_POINT('',(-7.5,0.,11.));
#323=CARTESIAN_POINT('Origin',(0.,0.,11.));
#324=CARTESIAN_POINT('Origin',(9.23760430703401,3.46697783083755E-15,0.));
#325=CARTESIAN_POINT('',(9.23760430703401,3.46697783083755E-15,0.));
#326=CARTESIAN_POINT('Origin',(4.618802153517,8.,0.));
#327=CARTESIAN_POINT('',(4.618802153517,8.,0.));
#328=CARTESIAN_POINT('Origin',(-4.61880215351701,7.99999999999999,0.));
#329=CARTESIAN_POINT('',(-4.61880215351701,7.99999999999999,0.));
#330=CARTESIAN_POINT('Origin',(-4.618802153517,-8.,0.));
#331=CARTESIAN_POINT('',(-9.23760430703401,-6.62087561159102E-15,0.));
#332=CARTESIAN_POINT('Origin',(-9.23760430703401,-6.62087561159102E-15,
0.));
#333=CARTESIAN_POINT('Origin',(6.47630097698008E-16,0.,11.));
#334=UNCERTAINTY_MEASURE_WITH_UNIT(LENGTH_MEASURE(0.01),#338,
'DISTANCE_ACCURACY_VALUE',
'Maximum model space distance between geometric entities at asserted c
onnectivities');
#335=UNCERTAINTY_MEASURE_WITH_UNIT(LENGTH_MEASURE(1.E-6),#338,
'DISTANCE_ACCURACY_VALUE',
'Maximum model space distance between geometric entities at asserted c
onnectivities');
#336=(
GEOMETRIC_REPRESENTATION_CONTEXT(3)
GLOBAL_UNCERTAINTY_ASSIGNED_CONTEXT((#334))
GLOBAL_UNIT_ASSIGNED_CONTEXT((#338,#341,#339))
REPRESENTATION_CONTEXT('','3D')
);
#337=(
GEOMETRIC_REPRESENTATION_CONTEXT(3)
GLOBAL_UNCERTAINTY_ASSIGNED_CONTEXT((#335))
GLOBAL_UNIT_ASSIGNED_CONTEXT((#338,#341,#339))
REPRESENTATION_CONTEXT('','3D')
);
#338=(
LENGTH_UNIT()
NAMED_UNIT(*)
SI_UNIT(.MILLI.,.METRE.)
);
#339=(
NAMED_UNIT(*)
SI_UNIT($,.STERADIAN.)
SOLID_ANGLE_UNIT()
);
#340=DIMENSIONAL_EXPONENTS(0.,0.,0.,0.,0.,0.,0.);
#341=(
CONVERSION_BASED_UNIT('degree',#343)
NAMED_UNIT(#340)
PLANE_ANGLE_UNIT()
);
#342=(
NAMED_UNIT(*)
PLANE_ANGLE_UNIT()
SI_UNIT($,.RADIAN.)
);
#343=PLANE_ANGLE_MEASURE_WITH_UNIT(PLANE_ANGLE_MEASURE(0.01745329252),#342);
#344=SHAPE_DEFINITION_REPRESENTATION(#345,#346);
#345=PRODUCT_DEFINITION_SHAPE('',$,#348);
#346=SHAPE_REPRESENTATION('',(#193),#336);
#347=PRODUCT_DEFINITION_CONTEXT('part definition',#352,'design');
#348=PRODUCT_DEFINITION('vk_14_ms','vk_14_ms',#349,#347);
#349=PRODUCT_DEFINITION_FORMATION('',$,#354);
#350=PRODUCT_RELATED_PRODUCT_CATEGORY('vk_14_ms','vk_14_ms',(#354));
#351=APPLICATION_PROTOCOL_DEFINITION('international standard',
'automotive_design',2009,#352);
#352=APPLICATION_CONTEXT(
'Core Data for Automotive Mechanical Design Process');
#353=PRODUCT_CONTEXT('part definition',#352,'mechanical');
#354=PRODUCT('vk_14_ms','vk_14_ms',$,(#353));
#355=PRESENTATION_STYLE_ASSIGNMENT((#357));
#356=PRESENTATION_STYLE_ASSIGNMENT((#358));
#357=SURFACE_STYLE_USAGE(.BOTH.,#359);
#358=SURFACE_STYLE_USAGE(.BOTH.,#360);
#359=SURFACE_SIDE_STYLE($,(#361));
#360=SURFACE_SIDE_STYLE($,(#362));
#361=SURFACE_STYLE_FILL_AREA(#363);
#362=SURFACE_STYLE_FILL_AREA(#364);
#363=FILL_AREA_STYLE($,(#365));
#364=FILL_AREA_STYLE($,(#366));
#365=FILL_AREA_STYLE_COLOUR($,#367);
#366=FILL_AREA_STYLE_COLOUR($,#368);
#367=COLOUR_RGB('',0.749019607843137,0.749019607843137,0.749019607843137);
#368=COLOUR_RGB('',0.796078431372549,0.603921568627451,0.231372549019608);
ENDSEC;
END-ISO-10303-21;
