ISO-10303-21;
HEADER;
/* Generated by software containing ST-Developer
 * from STEP Tools, Inc. (www.steptools.com) 
 */
/* OPTION: using custom schema-name function */

FILE_DESCRIPTION(
/* description */ ('VariCAD 2016-1.04 AP-214'),
/* implementation_level */ '2;1');

FILE_NAME(
/* name */ 'mck_33_a.stp',
/* time_stamp */ '2016-06-16T08:52:20+02:00',
/* author */ (''),
/* organization */ (''),
/* preprocessor_version */ 'ST-DEVELOPER v14',
/* originating_system */ 'VariCAD 2016-1.04; kernel version (20130303)',

/* authorisation */ '');

FILE_SCHEMA (('AUTOMOTIVE_DESIGN'));
ENDSEC;

DATA;
#10=MECHANICAL_DESIGN_GEOMETRIC_PRESENTATION_REPRESENTATION('',(#184),#564);
#11=CONTEXT_DEPENDENT_SHAPE_REPRESENTATION(#13,#307);
#12=NEXT_ASSEMBLY_USAGE_OCCURRENCE('','','',#308,#309,'');
#13=(
REPRESENTATION_RELATIONSHIP('','',#322,#323)
REPRESENTATION_RELATIONSHIP_WITH_TRANSFORMATION(#14)
SHAPE_REPRESENTATION_RELATIONSHIP()
);
#14=ITEM_DEFINED_TRANSFORMATION('','',#370,#325);
#15=SHAPE_REPRESENTATION_RELATIONSHIP('','',#323,#16);
#16=ADVANCED_BREP_SHAPE_REPRESENTATION('',(#18,#369),#563);
#17=CLOSED_SHELL('',(#152,#153,#154,#155,#156,#157,#158,#159,#160,#161,#162,
#163,#164,#165,#166,#167,#168,#169,#170));
#18=MANIFOLD_SOLID_BREP('',#17);
#19=FACE_BOUND('',#64,.F.);
#20=FACE_BOUND('',#69,.F.);
#21=FACE_BOUND('',#73,.F.);
#22=PLANE('',#360);
#23=PLANE('',#364);
#24=PLANE('',#367);
#25=TOROIDAL_SURFACE('',#357,2.35,0.2);
#26=TOROIDAL_SURFACE('',#368,2.35,0.2);
#27=CONICAL_SURFACE('',#351,2.60624999999895,0.785398163400002);
#28=CONICAL_SURFACE('',#352,4.4749999999986,0.7853981634);
#29=CONICAL_SURFACE('',#354,4.4749999999986,0.785398163399999);
#30=CONICAL_SURFACE('',#355,2.13499999999916,0.7853981634);
#31=CONICAL_SURFACE('',#359,2.60624999999895,0.785398163400002);
#32=CONICAL_SURFACE('',#361,4.4749999999986,0.7853981634);
#33=CONICAL_SURFACE('',#363,4.4749999999986,0.785398163399998);
#34=CONICAL_SURFACE('',#365,2.13499999999916,0.785398163400001);
#35=FACE_OUTER_BOUND('',#54,.F.);
#36=FACE_OUTER_BOUND('',#55,.F.);
#37=FACE_OUTER_BOUND('',#56,.F.);
#38=FACE_OUTER_BOUND('',#57,.F.);
#39=FACE_OUTER_BOUND('',#58,.F.);
#40=FACE_OUTER_BOUND('',#59,.F.);
#41=FACE_OUTER_BOUND('',#60,.F.);
#42=FACE_OUTER_BOUND('',#61,.F.);
#43=FACE_OUTER_BOUND('',#62,.F.);
#44=FACE_OUTER_BOUND('',#63,.F.);
#45=FACE_OUTER_BOUND('',#65,.F.);
#46=FACE_OUTER_BOUND('',#66,.F.);
#47=FACE_OUTER_BOUND('',#67,.F.);
#48=FACE_OUTER_BOUND('',#68,.F.);
#49=FACE_OUTER_BOUND('',#70,.F.);
#50=FACE_OUTER_BOUND('',#71,.F.);
#51=FACE_OUTER_BOUND('',#72,.F.);
#52=FACE_OUTER_BOUND('',#74,.F.);
#53=FACE_OUTER_BOUND('',#75,.F.);
#54=EDGE_LOOP('',(#76,#77,#78,#79));
#55=EDGE_LOOP('',(#80,#81,#82,#83));
#56=EDGE_LOOP('',(#84,#85,#86,#87));
#57=EDGE_LOOP('',(#88,#89,#90,#91));
#58=EDGE_LOOP('',(#92,#93,#94,#95));
#59=EDGE_LOOP('',(#96,#97,#98,#99));
#60=EDGE_LOOP('',(#100,#101,#102,#103));
#61=EDGE_LOOP('',(#104,#105,#106,#107));
#62=EDGE_LOOP('',(#108,#109,#110,#111));
#63=EDGE_LOOP('',(#112,#113,#114,#115));
#64=EDGE_LOOP('',(#116,#117));
#65=EDGE_LOOP('',(#118,#119));
#66=EDGE_LOOP('',(#120,#121,#122,#123));
#67=EDGE_LOOP('',(#124,#125,#126,#127));
#68=EDGE_LOOP('',(#128,#129,#130,#131));
#69=EDGE_LOOP('',(#132,#133));
#70=EDGE_LOOP('',(#134,#135));
#71=EDGE_LOOP('',(#136,#137,#138,#139));
#72=EDGE_LOOP('',(#140,#141,#142,#143));
#73=EDGE_LOOP('',(#144,#145));
#74=EDGE_LOOP('',(#146,#147));
#75=EDGE_LOOP('',(#148,#149,#150,#151));
#76=ORIENTED_EDGE('',*,*,#241,.T.);
#77=ORIENTED_EDGE('',*,*,#274,.F.);
#78=ORIENTED_EDGE('',*,*,#257,.F.);
#79=ORIENTED_EDGE('',*,*,#273,.F.);
#80=ORIENTED_EDGE('',*,*,#257,.T.);
#81=ORIENTED_EDGE('',*,*,#272,.F.);
#82=ORIENTED_EDGE('',*,*,#255,.F.);
#83=ORIENTED_EDGE('',*,*,#271,.F.);
#84=ORIENTED_EDGE('',*,*,#253,.T.);
#85=ORIENTED_EDGE('',*,*,#270,.F.);
#86=ORIENTED_EDGE('',*,*,#251,.F.);
#87=ORIENTED_EDGE('',*,*,#269,.F.);
#88=ORIENTED_EDGE('',*,*,#251,.T.);
#89=ORIENTED_EDGE('',*,*,#268,.F.);
#90=ORIENTED_EDGE('',*,*,#249,.F.);
#91=ORIENTED_EDGE('',*,*,#267,.F.);
#92=ORIENTED_EDGE('',*,*,#249,.T.);
#93=ORIENTED_EDGE('',*,*,#266,.F.);
#94=ORIENTED_EDGE('',*,*,#247,.T.);
#95=ORIENTED_EDGE('',*,*,#265,.F.);
#96=ORIENTED_EDGE('',*,*,#245,.F.);
#97=ORIENTED_EDGE('',*,*,#264,.F.);
#98=ORIENTED_EDGE('',*,*,#243,.F.);
#99=ORIENTED_EDGE('',*,*,#263,.F.);
#100=ORIENTED_EDGE('',*,*,#243,.T.);
#101=ORIENTED_EDGE('',*,*,#262,.F.);
#102=ORIENTED_EDGE('',*,*,#240,.T.);
#103=ORIENTED_EDGE('',*,*,#261,.F.);
#104=ORIENTED_EDGE('',*,*,#237,.F.);
#105=ORIENTED_EDGE('',*,*,#260,.F.);
#106=ORIENTED_EDGE('',*,*,#240,.F.);
#107=ORIENTED_EDGE('',*,*,#259,.F.);
#108=ORIENTED_EDGE('',*,*,#242,.T.);
#109=ORIENTED_EDGE('',*,*,#273,.T.);
#110=ORIENTED_EDGE('',*,*,#258,.F.);
#111=ORIENTED_EDGE('',*,*,#274,.T.);
#112=ORIENTED_EDGE('',*,*,#258,.T.);
#113=ORIENTED_EDGE('',*,*,#271,.T.);
#114=ORIENTED_EDGE('',*,*,#256,.F.);
#115=ORIENTED_EDGE('',*,*,#272,.T.);
#116=ORIENTED_EDGE('',*,*,#256,.T.);
#117=ORIENTED_EDGE('',*,*,#255,.T.);
#118=ORIENTED_EDGE('',*,*,#254,.F.);
#119=ORIENTED_EDGE('',*,*,#253,.F.);
#120=ORIENTED_EDGE('',*,*,#254,.T.);
#121=ORIENTED_EDGE('',*,*,#269,.T.);
#122=ORIENTED_EDGE('',*,*,#252,.F.);
#123=ORIENTED_EDGE('',*,*,#270,.T.);
#124=ORIENTED_EDGE('',*,*,#252,.T.);
#125=ORIENTED_EDGE('',*,*,#267,.T.);
#126=ORIENTED_EDGE('',*,*,#250,.F.);
#127=ORIENTED_EDGE('',*,*,#268,.T.);
#128=ORIENTED_EDGE('',*,*,#250,.T.);
#129=ORIENTED_EDGE('',*,*,#265,.T.);
#130=ORIENTED_EDGE('',*,*,#248,.T.);
#131=ORIENTED_EDGE('',*,*,#266,.T.);
#132=ORIENTED_EDGE('',*,*,#246,.T.);
#133=ORIENTED_EDGE('',*,*,#245,.T.);
#134=ORIENTED_EDGE('',*,*,#248,.F.);
#135=ORIENTED_EDGE('',*,*,#247,.F.);
#136=ORIENTED_EDGE('',*,*,#246,.F.);
#137=ORIENTED_EDGE('',*,*,#263,.T.);
#138=ORIENTED_EDGE('',*,*,#244,.F.);
#139=ORIENTED_EDGE('',*,*,#264,.T.);
#140=ORIENTED_EDGE('',*,*,#244,.T.);
#141=ORIENTED_EDGE('',*,*,#261,.T.);
#142=ORIENTED_EDGE('',*,*,#239,.T.);
#143=ORIENTED_EDGE('',*,*,#262,.T.);
#144=ORIENTED_EDGE('',*,*,#238,.T.);
#145=ORIENTED_EDGE('',*,*,#237,.T.);
#146=ORIENTED_EDGE('',*,*,#242,.F.);
#147=ORIENTED_EDGE('',*,*,#241,.F.);
#148=ORIENTED_EDGE('',*,*,#238,.F.);
#149=ORIENTED_EDGE('',*,*,#259,.T.);
#150=ORIENTED_EDGE('',*,*,#239,.F.);
#151=ORIENTED_EDGE('',*,*,#260,.T.);
#152=ADVANCED_FACE('',(#35),#171,.F.);
#153=ADVANCED_FACE('',(#36),#27,.F.);
#154=ADVANCED_FACE('',(#37),#28,.T.);
#155=ADVANCED_FACE('',(#38),#172,.T.);
#156=ADVANCED_FACE('',(#39),#29,.T.);
#157=ADVANCED_FACE('',(#40),#30,.F.);
#158=ADVANCED_FACE('',(#41),#173,.F.);
#159=ADVANCED_FACE('',(#42),#25,.T.);
#160=ADVANCED_FACE('',(#43),#174,.F.);
#161=ADVANCED_FACE('',(#44),#31,.F.);
#162=ADVANCED_FACE('',(#19,#45),#22,.T.);
#163=ADVANCED_FACE('',(#46),#32,.T.);
#164=ADVANCED_FACE('',(#47),#175,.T.);
#165=ADVANCED_FACE('',(#48),#33,.T.);
#166=ADVANCED_FACE('',(#20,#49),#23,.T.);
#167=ADVANCED_FACE('',(#50),#34,.F.);
#168=ADVANCED_FACE('',(#51),#176,.F.);
#169=ADVANCED_FACE('',(#21,#52),#24,.T.);
#170=ADVANCED_FACE('',(#53),#26,.T.);
#171=CYLINDRICAL_SURFACE('',#350,2.625);
#172=CYLINDRICAL_SURFACE('',#353,5.);
#173=CYLINDRICAL_SURFACE('',#356,2.15);
#174=CYLINDRICAL_SURFACE('',#358,2.625);
#175=CYLINDRICAL_SURFACE('',#362,5.);
#176=CYLINDRICAL_SURFACE('',#366,2.15);
#177=PRESENTATION_STYLE_ASSIGNMENT((#178));
#178=SURFACE_STYLE_USAGE(.BOTH.,#179);
#179=SURFACE_SIDE_STYLE('',(#180));
#180=SURFACE_STYLE_FILL_AREA(#181);
#181=FILL_AREA_STYLE('',(#182));
#182=FILL_AREA_STYLE_COLOUR('',#183);
#183=COLOUR_RGB('Colour',0.686274509803922,0.776470588235294,0.862745098039216);
#184=STYLED_ITEM('',(#177),#18);
#185=LINE('',#527,#199);
#186=LINE('',#528,#200);
#187=LINE('',#529,#201);
#188=LINE('',#530,#202);
#189=LINE('',#531,#203);
#190=LINE('',#532,#204);
#191=LINE('',#533,#205);
#192=LINE('',#534,#206);
#193=LINE('',#535,#207);
#194=LINE('',#536,#208);
#195=LINE('',#537,#209);
#196=LINE('',#538,#210);
#197=LINE('',#539,#211);
#198=LINE('',#540,#212);
#199=VECTOR('',#423,1.5);
#200=VECTOR('',#424,1.5);
#201=VECTOR('',#425,0.424264068711929);
#202=VECTOR('',#426,0.424264068711929);
#203=VECTOR('',#427,0.707106781186548);
#204=VECTOR('',#428,0.707106781186548);
#205=VECTOR('',#429,8.);
#206=VECTOR('',#430,8.);
#207=VECTOR('',#431,0.707106781186548);
#208=VECTOR('',#432,0.707106781186548);
#209=VECTOR('',#433,0.530330085889911);
#210=VECTOR('',#434,0.530330085889911);
#211=VECTOR('',#435,6.625);
#212=VECTOR('',#436,6.625);
#213=CIRCLE('',#326,2.35);
#214=CIRCLE('',#327,2.35);
#215=CIRCLE('',#328,2.15);
#216=CIRCLE('',#329,2.15);
#217=CIRCLE('',#330,2.625);
#218=CIRCLE('',#331,2.625);
#219=CIRCLE('',#332,2.15);
#220=CIRCLE('',#333,2.15);
#221=CIRCLE('',#334,2.45);
#222=CIRCLE('',#335,2.45);
#223=CIRCLE('',#336,4.5);
#224=CIRCLE('',#337,4.5);
#225=CIRCLE('',#338,5.);
#226=CIRCLE('',#339,5.);
#227=CIRCLE('',#340,5.);
#228=CIRCLE('',#341,5.);
#229=CIRCLE('',#342,4.5);
#230=CIRCLE('',#343,4.5);
#231=CIRCLE('',#344,3.);
#232=CIRCLE('',#345,3.);
#233=CIRCLE('',#346,2.625);
#234=CIRCLE('',#347,2.625);
#235=CIRCLE('',#348,0.2);
#236=CIRCLE('',#349,0.2);
#237=EDGE_CURVE('',#296,#295,#213,.T.);
#238=EDGE_CURVE('',#295,#296,#214,.T.);
#239=EDGE_CURVE('',#294,#293,#215,.T.);
#240=EDGE_CURVE('',#293,#294,#216,.T.);
#241=EDGE_CURVE('',#292,#291,#217,.T.);
#242=EDGE_CURVE('',#291,#292,#218,.T.);
#243=EDGE_CURVE('',#290,#289,#219,.T.);
#244=EDGE_CURVE('',#289,#290,#220,.T.);
#245=EDGE_CURVE('',#288,#287,#221,.T.);
#246=EDGE_CURVE('',#287,#288,#222,.T.);
#247=EDGE_CURVE('',#286,#285,#223,.T.);
#248=EDGE_CURVE('',#285,#286,#224,.T.);
#249=EDGE_CURVE('',#284,#283,#225,.T.);
#250=EDGE_CURVE('',#283,#284,#226,.T.);
#251=EDGE_CURVE('',#282,#281,#227,.T.);
#252=EDGE_CURVE('',#281,#282,#228,.T.);
#253=EDGE_CURVE('',#280,#279,#229,.T.);
#254=EDGE_CURVE('',#279,#280,#230,.T.);
#255=EDGE_CURVE('',#278,#277,#231,.T.);
#256=EDGE_CURVE('',#277,#278,#232,.T.);
#257=EDGE_CURVE('',#276,#275,#233,.T.);
#258=EDGE_CURVE('',#275,#276,#234,.T.);
#259=EDGE_CURVE('',#295,#293,#235,.T.);
#260=EDGE_CURVE('',#294,#296,#236,.T.);
#261=EDGE_CURVE('',#290,#294,#185,.T.);
#262=EDGE_CURVE('',#293,#289,#186,.T.);
#263=EDGE_CURVE('',#287,#290,#187,.T.);
#264=EDGE_CURVE('',#289,#288,#188,.T.);
#265=EDGE_CURVE('',#284,#285,#189,.T.);
#266=EDGE_CURVE('',#286,#283,#190,.T.);
#267=EDGE_CURVE('',#282,#284,#191,.T.);
#268=EDGE_CURVE('',#283,#281,#192,.T.);
#269=EDGE_CURVE('',#280,#282,#193,.T.);
#270=EDGE_CURVE('',#281,#279,#194,.T.);
#271=EDGE_CURVE('',#276,#278,#195,.T.);
#272=EDGE_CURVE('',#277,#275,#196,.T.);
#273=EDGE_CURVE('',#292,#276,#197,.T.);
#274=EDGE_CURVE('',#275,#291,#198,.T.);
#275=VERTEX_POINT('',#481);
#276=VERTEX_POINT('',#482);
#277=VERTEX_POINT('',#483);
#278=VERTEX_POINT('',#484);
#279=VERTEX_POINT('',#485);
#280=VERTEX_POINT('',#486);
#281=VERTEX_POINT('',#487);
#282=VERTEX_POINT('',#488);
#283=VERTEX_POINT('',#489);
#284=VERTEX_POINT('',#490);
#285=VERTEX_POINT('',#491);
#286=VERTEX_POINT('',#492);
#287=VERTEX_POINT('',#493);
#288=VERTEX_POINT('',#494);
#289=VERTEX_POINT('',#495);
#290=VERTEX_POINT('',#496);
#291=VERTEX_POINT('',#497);
#292=VERTEX_POINT('',#498);
#293=VERTEX_POINT('',#499);
#294=VERTEX_POINT('',#500);
#295=VERTEX_POINT('',#501);
#296=VERTEX_POINT('',#502);
#297=PRODUCT_CATEGORY_RELATIONSHIP('','',#301,#299);
#298=PRODUCT_CATEGORY_RELATIONSHIP('','',#302,#300);
#299=PRODUCT_RELATED_PRODUCT_CATEGORY('detail','',(#314));
#300=PRODUCT_RELATED_PRODUCT_CATEGORY('detail','',(#315));
#301=PRODUCT_CATEGORY('part','');
#302=PRODUCT_CATEGORY('part','');
#303=SHAPE_DEFINITION_REPRESENTATION(#305,#322);
#304=SHAPE_DEFINITION_REPRESENTATION(#306,#323);
#305=PRODUCT_DEFINITION_SHAPE('','Shape',#308);
#306=PRODUCT_DEFINITION_SHAPE('','Shape',#309);
#307=PRODUCT_DEFINITION_SHAPE('','',#12);
#308=PRODUCT_DEFINITION('','',#310,#312);
#309=PRODUCT_DEFINITION('','',#311,#313);
#310=PRODUCT_DEFINITION_FORMATION('','',#314);
#311=PRODUCT_DEFINITION_FORMATION('','',#315);
#312=PRODUCT_DEFINITION_CONTEXT('part definition',#320,'');
#313=PRODUCT_DEFINITION_CONTEXT('part definition',#321,'');
#314=PRODUCT('mck_33_a','mck_33_a','not specified',(#316));
#315=PRODUCT('PK 3-5433 Al rund','PK 3-5433 Al rund','not specified',(#317));
#316=PRODUCT_CONTEXT('',#320,'mechanical');
#317=PRODUCT_CONTEXT('',#321,'mechanical');
#318=APPLICATION_PROTOCOL_DEFINITION('Draft International Standard',
'automotive_design',1997,#320);
#319=APPLICATION_PROTOCOL_DEFINITION('Draft International Standard',
'automotive_design',1997,#321);
#320=APPLICATION_CONTEXT('automotive design');
#321=APPLICATION_CONTEXT('automotive design');
#322=SHAPE_REPRESENTATION('mck_33_a',(#324,#370),#562);
#323=SHAPE_REPRESENTATION('PK 3-5433 Al rund',(#325),#563);
#324=AXIS2_PLACEMENT_3D('',#479,#371,#372);
#325=AXIS2_PLACEMENT_3D('',#480,#373,#374);
#326=AXIS2_PLACEMENT_3D('',#503,#375,#376);
#327=AXIS2_PLACEMENT_3D('',#504,#377,#378);
#328=AXIS2_PLACEMENT_3D('',#505,#379,#380);
#329=AXIS2_PLACEMENT_3D('',#506,#381,#382);
#330=AXIS2_PLACEMENT_3D('',#507,#383,#384);
#331=AXIS2_PLACEMENT_3D('',#508,#385,#386);
#332=AXIS2_PLACEMENT_3D('',#509,#387,#388);
#333=AXIS2_PLACEMENT_3D('',#510,#389,#390);
#334=AXIS2_PLACEMENT_3D('',#511,#391,#392);
#335=AXIS2_PLACEMENT_3D('',#512,#393,#394);
#336=AXIS2_PLACEMENT_3D('',#513,#395,#396);
#337=AXIS2_PLACEMENT_3D('',#514,#397,#398);
#338=AXIS2_PLACEMENT_3D('',#515,#399,#400);
#339=AXIS2_PLACEMENT_3D('',#516,#401,#402);
#340=AXIS2_PLACEMENT_3D('',#517,#403,#404);
#341=AXIS2_PLACEMENT_3D('',#518,#405,#406);
#342=AXIS2_PLACEMENT_3D('',#519,#407,#408);
#343=AXIS2_PLACEMENT_3D('',#520,#409,#410);
#344=AXIS2_PLACEMENT_3D('',#521,#411,#412);
#345=AXIS2_PLACEMENT_3D('',#522,#413,#414);
#346=AXIS2_PLACEMENT_3D('',#523,#415,#416);
#347=AXIS2_PLACEMENT_3D('',#524,#417,#418);
#348=AXIS2_PLACEMENT_3D('',#525,#419,#420);
#349=AXIS2_PLACEMENT_3D('',#526,#421,#422);
#350=AXIS2_PLACEMENT_3D('',#541,#437,#438);
#351=AXIS2_PLACEMENT_3D('',#542,#440,#439);
#352=AXIS2_PLACEMENT_3D('',#543,#442,#441);
#353=AXIS2_PLACEMENT_3D('',#544,#443,#444);
#354=AXIS2_PLACEMENT_3D('',#545,#446,#445);
#355=AXIS2_PLACEMENT_3D('',#546,#448,#447);
#356=AXIS2_PLACEMENT_3D('',#547,#449,#450);
#357=AXIS2_PLACEMENT_3D('',#548,#451,#452);
#358=AXIS2_PLACEMENT_3D('',#549,#453,#454);
#359=AXIS2_PLACEMENT_3D('',#550,#456,#455);
#360=AXIS2_PLACEMENT_3D('',#551,#457,#458);
#361=AXIS2_PLACEMENT_3D('',#552,#460,#459);
#362=AXIS2_PLACEMENT_3D('',#553,#461,#462);
#363=AXIS2_PLACEMENT_3D('',#554,#464,#463);
#364=AXIS2_PLACEMENT_3D('',#555,#465,#466);
#365=AXIS2_PLACEMENT_3D('',#556,#468,#467);
#366=AXIS2_PLACEMENT_3D('',#557,#469,#470);
#367=AXIS2_PLACEMENT_3D('',#558,#471,#472);
#368=AXIS2_PLACEMENT_3D('',#559,#473,#474);
#369=AXIS2_PLACEMENT_3D('',#560,#475,#476);
#370=AXIS2_PLACEMENT_3D('',#561,#477,#478);
#371=DIRECTION('',(0.,0.,1.));
#372=DIRECTION('',(1.,0.,0.));
#373=DIRECTION('',(0.,0.,1.));
#374=DIRECTION('',(1.,0.,0.));
#375=DIRECTION('',(0.,0.,-1.));
#376=DIRECTION('',(1.,0.,0.));
#377=DIRECTION('',(0.,0.,-1.));
#378=DIRECTION('',(-1.,0.,0.));
#379=DIRECTION('',(0.,0.,1.));
#380=DIRECTION('',(1.,0.,0.));
#381=DIRECTION('',(0.,0.,1.));
#382=DIRECTION('',(-1.,0.,0.));
#383=DIRECTION('',(0.,0.,-1.));
#384=DIRECTION('',(1.,0.,0.));
#385=DIRECTION('',(0.,0.,-1.));
#386=DIRECTION('',(-1.,0.,0.));
#387=DIRECTION('',(0.,0.,-1.));
#388=DIRECTION('',(1.,0.,0.));
#389=DIRECTION('',(0.,0.,-1.));
#390=DIRECTION('',(-1.,0.,0.));
#391=DIRECTION('',(0.,0.,1.));
#392=DIRECTION('',(-1.,0.,0.));
#393=DIRECTION('',(0.,0.,1.));
#394=DIRECTION('',(1.,0.,0.));
#395=DIRECTION('',(0.,0.,1.));
#396=DIRECTION('',(-1.,0.,0.));
#397=DIRECTION('',(0.,0.,1.));
#398=DIRECTION('',(1.,0.,0.));
#399=DIRECTION('',(0.,0.,-1.));
#400=DIRECTION('',(1.,0.,0.));
#401=DIRECTION('',(0.,0.,-1.));
#402=DIRECTION('',(-1.,0.,0.));
#403=DIRECTION('',(0.,0.,-1.));
#404=DIRECTION('',(1.,0.,0.));
#405=DIRECTION('',(0.,0.,-1.));
#406=DIRECTION('',(-1.,0.,0.));
#407=DIRECTION('',(0.,0.,-1.));
#408=DIRECTION('',(1.,0.,0.));
#409=DIRECTION('',(0.,0.,-1.));
#410=DIRECTION('',(-1.,0.,0.));
#411=DIRECTION('',(0.,0.,-1.));
#412=DIRECTION('',(1.,0.,0.));
#413=DIRECTION('',(0.,0.,-1.));
#414=DIRECTION('',(-1.,0.,0.));
#415=DIRECTION('',(0.,0.,-1.));
#416=DIRECTION('',(1.,0.,0.));
#417=DIRECTION('',(0.,0.,-1.));
#418=DIRECTION('',(-1.,0.,0.));
#419=DIRECTION('',(0.,-1.,0.));
#420=DIRECTION('',(0.,0.,-1.));
#421=DIRECTION('',(0.,-1.,0.));
#422=DIRECTION('',(-1.,0.,0.));
#423=DIRECTION('',(0.,0.,-1.));
#424=DIRECTION('',(0.,0.,1.));
#425=DIRECTION('',(-0.707106781186548,0.,-0.707106781186547));
#426=DIRECTION('',(-0.707106781186548,0.,0.707106781186547));
#427=DIRECTION('',(-0.707106781186547,0.,0.707106781186548));
#428=DIRECTION('',(-0.707106781186547,0.,-0.707106781186548));
#429=DIRECTION('',(0.,0.,1.));
#430=DIRECTION('',(0.,0.,-1.));
#431=DIRECTION('',(0.707106781186547,0.,0.707106781186547));
#432=DIRECTION('',(0.707106781186547,0.,-0.707106781186547));
#433=DIRECTION('',(0.707106781186548,0.,-0.707106781186548));
#434=DIRECTION('',(0.707106781186548,0.,0.707106781186548));
#435=DIRECTION('',(0.,0.,-1.));
#436=DIRECTION('',(0.,0.,1.));
#437=DIRECTION('',(0.,0.,-1.));
#438=DIRECTION('',(0.996194698091746,0.0871557427476582,0.));
#439=DIRECTION('',(-0.996194698091746,0.0871557427476579,0.));
#440=DIRECTION('',(0.,0.,-1.));
#441=DIRECTION('',(-0.996194698091746,0.0871557427476579,0.));
#442=DIRECTION('',(0.,0.,1.));
#443=DIRECTION('',(0.,0.,-1.));
#444=DIRECTION('',(0.996194698091746,0.0871557427476582,0.));
#445=DIRECTION('',(0.996194698091746,0.0871557427476582,0.));
#446=DIRECTION('',(0.,0.,-1.));
#447=DIRECTION('',(0.996194698091746,0.0871557427476582,0.));
#448=DIRECTION('',(0.,0.,1.));
#449=DIRECTION('',(0.,0.,-1.));
#450=DIRECTION('',(0.996194698091745,0.0871557427476582,0.));
#451=DIRECTION('',(0.,0.,-1.));
#452=DIRECTION('',(0.996194698091746,0.0871557427476582,0.));
#453=DIRECTION('',(0.,0.,-1.));
#454=DIRECTION('',(-0.996194698091746,-0.0871557427476582,0.));
#455=DIRECTION('',(0.996194698091746,-0.0871557427476582,0.));
#456=DIRECTION('',(0.,0.,-1.));
#457=DIRECTION('',(0.,0.,-1.));
#458=DIRECTION('',(-1.,0.,0.));
#459=DIRECTION('',(0.996194698091746,-0.0871557427476582,0.));
#460=DIRECTION('',(0.,0.,1.));
#461=DIRECTION('',(0.,0.,-1.));
#462=DIRECTION('',(-0.996194698091746,-0.0871557427476582,0.));
#463=DIRECTION('',(-0.996194698091746,-0.0871557427476582,0.));
#464=DIRECTION('',(0.,0.,-1.));
#465=DIRECTION('',(0.,0.,1.));
#466=DIRECTION('',(1.,0.,0.));
#467=DIRECTION('',(-0.996194698091746,-0.0871557427476582,0.));
#468=DIRECTION('',(0.,0.,1.));
#469=DIRECTION('',(0.,0.,-1.));
#470=DIRECTION('',(-0.996194698091745,-0.0871557427476582,0.));
#471=DIRECTION('',(0.,0.,-1.));
#472=DIRECTION('',(-1.,0.,0.));
#473=DIRECTION('',(0.,0.,-1.));
#474=DIRECTION('',(-0.996194698091746,-0.0871557427476579,0.));
#475=DIRECTION('',(0.,0.,1.));
#476=DIRECTION('',(1.,0.,0.));
#477=DIRECTION('',(0.,0.,1.));
#478=DIRECTION('',(1.,0.,0.));
#479=CARTESIAN_POINT('',(0.,0.,0.));
#480=CARTESIAN_POINT('',(0.,0.,0.));
#481=CARTESIAN_POINT('',(-2.625,0.,-8.625));
#482=CARTESIAN_POINT('',(2.625,0.,-8.625));
#483=CARTESIAN_POINT('',(-3.,0.,-9.));
#484=CARTESIAN_POINT('',(3.,0.,-9.));
#485=CARTESIAN_POINT('',(-4.5,0.,-9.));
#486=CARTESIAN_POINT('',(4.5,0.,-9.));
#487=CARTESIAN_POINT('',(-5.,0.,-8.5));
#488=CARTESIAN_POINT('',(5.,0.,-8.5));
#489=CARTESIAN_POINT('',(-5.,0.,-0.499999999999999));
#490=CARTESIAN_POINT('',(5.,0.,-0.499999999999999));
#491=CARTESIAN_POINT('',(4.5,0.,0.));
#492=CARTESIAN_POINT('',(-4.5,0.,0.));
#493=CARTESIAN_POINT('',(2.45,0.,0.));
#494=CARTESIAN_POINT('',(-2.45,0.,0.));
#495=CARTESIAN_POINT('',(-2.15,0.,-0.299999999999999));
#496=CARTESIAN_POINT('',(2.15,0.,-0.299999999999999));
#497=CARTESIAN_POINT('',(-2.625,0.,-2.));
#498=CARTESIAN_POINT('',(2.625,0.,-2.));
#499=CARTESIAN_POINT('',(-2.15,0.,-1.8));
#500=CARTESIAN_POINT('',(2.15,0.,-1.8));
#501=CARTESIAN_POINT('',(-2.35,0.,-2.));
#502=CARTESIAN_POINT('',(2.35,0.,-2.));
#503=CARTESIAN_POINT('',(0.,0.,-2.));
#504=CARTESIAN_POINT('',(0.,0.,-2.));
#505=CARTESIAN_POINT('',(0.,0.,-1.8));
#506=CARTESIAN_POINT('',(0.,0.,-1.8));
#507=CARTESIAN_POINT('',(0.,0.,-2.));
#508=CARTESIAN_POINT('',(0.,0.,-2.));
#509=CARTESIAN_POINT('',(0.,0.,-0.299999999999999));
#510=CARTESIAN_POINT('',(0.,0.,-0.299999999999999));
#511=CARTESIAN_POINT('',(0.,0.,0.));
#512=CARTESIAN_POINT('',(0.,0.,0.));
#513=CARTESIAN_POINT('',(0.,0.,0.));
#514=CARTESIAN_POINT('',(0.,0.,0.));
#515=CARTESIAN_POINT('',(0.,0.,-0.499999999999999));
#516=CARTESIAN_POINT('',(0.,0.,-0.499999999999999));
#517=CARTESIAN_POINT('',(0.,0.,-8.5));
#518=CARTESIAN_POINT('',(0.,0.,-8.5));
#519=CARTESIAN_POINT('',(0.,0.,-9.));
#520=CARTESIAN_POINT('',(0.,0.,-9.));
#521=CARTESIAN_POINT('',(0.,0.,-9.));
#522=CARTESIAN_POINT('',(0.,0.,-9.));
#523=CARTESIAN_POINT('',(0.,0.,-8.625));
#524=CARTESIAN_POINT('',(0.,0.,-8.625));
#525=CARTESIAN_POINT('',(-2.35,0.,-1.8));
#526=CARTESIAN_POINT('',(2.35,0.,-1.8));
#527=CARTESIAN_POINT('',(2.15,0.,-0.299999999999999));
#528=CARTESIAN_POINT('',(-2.15,0.,-1.8));
#529=CARTESIAN_POINT('',(2.45,0.,0.));
#530=CARTESIAN_POINT('',(-2.15,0.,-0.299999999999999));
#531=CARTESIAN_POINT('',(5.,0.,-0.499999999999999));
#532=CARTESIAN_POINT('',(-4.5,0.,0.));
#533=CARTESIAN_POINT('',(5.,0.,-8.5));
#534=CARTESIAN_POINT('',(-5.,0.,-0.499999999999999));
#535=CARTESIAN_POINT('',(4.5,0.,-9.));
#536=CARTESIAN_POINT('',(-5.,0.,-8.5));
#537=CARTESIAN_POINT('',(2.625,0.,-8.625));
#538=CARTESIAN_POINT('',(-3.,0.,-9.));
#539=CARTESIAN_POINT('',(2.625,0.,-2.));
#540=CARTESIAN_POINT('',(-2.625,0.,-8.625));
#541=CARTESIAN_POINT('',(0.,0.,-1.66875));
#542=CARTESIAN_POINT('',(0.,0.,-8.60625));
#543=CARTESIAN_POINT('',(0.,0.,-9.025));
#544=CARTESIAN_POINT('',(0.,0.,-8.9));
#545=CARTESIAN_POINT('',(0.,0.,0.025000000000002));
#546=CARTESIAN_POINT('',(0.,0.,-0.314999999999999));
#547=CARTESIAN_POINT('',(0.,0.,-0.224999999999999));
#548=CARTESIAN_POINT('',(0.,0.,-1.8));
#549=CARTESIAN_POINT('',(0.,0.,-1.66875));
#550=CARTESIAN_POINT('',(0.,0.,-8.60625));
#551=CARTESIAN_POINT('',(4.95,-4.95,-9.));
#552=CARTESIAN_POINT('',(0.,0.,-9.025));
#553=CARTESIAN_POINT('',(0.,0.,-8.9));
#554=CARTESIAN_POINT('',(0.,0.,0.0250000000000015));
#555=CARTESIAN_POINT('',(-4.95,-4.95,0.));
#556=CARTESIAN_POINT('',(0.,0.,-0.314999999999999));
#557=CARTESIAN_POINT('',(0.,0.,-0.224999999999999));
#558=CARTESIAN_POINT('',(2.8875,-2.86078128493745,-2.));
#559=CARTESIAN_POINT('',(0.,0.,-1.8));
#560=CARTESIAN_POINT('',(0.,0.,0.));
#561=CARTESIAN_POINT('',(0.,0.,0.));
#562=(
GEOMETRIC_REPRESENTATION_CONTEXT(3)
GLOBAL_UNCERTAINTY_ASSIGNED_CONTEXT((#565))
GLOBAL_UNIT_ASSIGNED_CONTEXT((#574,#571,#568))
REPRESENTATION_CONTEXT('','')
);
#563=(
GEOMETRIC_REPRESENTATION_CONTEXT(3)
GLOBAL_UNCERTAINTY_ASSIGNED_CONTEXT((#566))
GLOBAL_UNIT_ASSIGNED_CONTEXT((#575,#572,#569))
REPRESENTATION_CONTEXT('','')
);
#564=(
GEOMETRIC_REPRESENTATION_CONTEXT(3)
GLOBAL_UNCERTAINTY_ASSIGNED_CONTEXT((#567))
GLOBAL_UNIT_ASSIGNED_CONTEXT((#576,#573,#570))
REPRESENTATION_CONTEXT('','')
);
#565=UNCERTAINTY_MEASURE_WITH_UNIT(LENGTH_MEASURE(0.001),#574,'TOL_CRV',
'CONFUSED CURVE UNCERTAINTY');
#566=UNCERTAINTY_MEASURE_WITH_UNIT(LENGTH_MEASURE(0.001),#575,'TOL_CRV',
'CONFUSED CURVE UNCERTAINTY');
#567=UNCERTAINTY_MEASURE_WITH_UNIT(LENGTH_MEASURE(0.001),#576,'TOL_CRV',
'CONFUSED CURVE UNCERTAINTY');
#568=(
NAMED_UNIT(*)
SI_UNIT($,.STERADIAN.)
SOLID_ANGLE_UNIT()
);
#569=(
NAMED_UNIT(*)
SI_UNIT($,.STERADIAN.)
SOLID_ANGLE_UNIT()
);
#570=(
NAMED_UNIT(*)
SI_UNIT($,.STERADIAN.)
SOLID_ANGLE_UNIT()
);
#571=(
NAMED_UNIT(*)
PLANE_ANGLE_UNIT()
SI_UNIT($,.RADIAN.)
);
#572=(
NAMED_UNIT(*)
PLANE_ANGLE_UNIT()
SI_UNIT($,.RADIAN.)
);
#573=(
NAMED_UNIT(*)
PLANE_ANGLE_UNIT()
SI_UNIT($,.RADIAN.)
);
#574=(
LENGTH_UNIT()
NAMED_UNIT(*)
SI_UNIT(.MILLI.,.METRE.)
);
#575=(
LENGTH_UNIT()
NAMED_UNIT(*)
SI_UNIT(.MILLI.,.METRE.)
);
#576=(
LENGTH_UNIT()
NAMED_UNIT(*)
SI_UNIT(.MILLI.,.METRE.)
);
ENDSEC;
END-ISO-10303-21;
