ISO-10303-21;
HEADER;
/* Generated by software containing ST-Developer
 * from STEP Tools, Inc. (www.steptools.com) 
 */

FILE_DESCRIPTION(
/* description */ (''),
/* implementation_level */ '2;1');

FILE_NAME(
/* name */ 'H:\\cad\\neutral\\3d\\70363\\iqsc_120_msv.stp',
/* time_stamp */ '2017-11-02T11:34:25+01:00',
/* author */ ('Hamoud'),
/* organization */ (''),
/* preprocessor_version */ 'ST-DEVELOPER v15.6',
/* originating_system */ 'Autodesk Inventor LT ',
/* authorisation */ '');

FILE_SCHEMA (('AUTOMOTIVE_DESIGN { 1 0 10303 214 3 1 1 }'));
ENDSEC;

DATA;
#10=MECHANICAL_DESIGN_GEOMETRIC_PRESENTATION_REPRESENTATION('',(#13,#14),
#472);
#11=SHAPE_REPRESENTATION_RELATIONSHIP('SRR','None',#481,#12);
#12=ADVANCED_BREP_SHAPE_REPRESENTATION($,(#15,#16),#471);
#13=STYLED_ITEM('',(#491),#15);
#14=STYLED_ITEM('',(#492),#16);
#15=MANIFOLD_SOLID_BREP('Solid',#261);
#16=MANIFOLD_SOLID_BREP('Solid_1',#262);
#17=CONICAL_SURFACE('',#275,8.5,45.);
#18=CONICAL_SURFACE('',#279,6.62500000000006,44.9999999999951);
#19=CONICAL_SURFACE('',#285,8.5,44.9999999999995);
#20=CONICAL_SURFACE('',#289,8.5,45.);
#21=CONICAL_SURFACE('',#295,7.,45.0000000000001);
#22=CONICAL_SURFACE('',#298,7.5964101615139,30.0000000000005);
#23=CONICAL_SURFACE('',#304,6.57500000000017,45.0000000000016);
#24=TOROIDAL_SURFACE('',#269,6.64999999999992,0.200000000000003);
#25=CYLINDRICAL_SURFACE('',#267,6.4499999999999);
#26=CYLINDRICAL_SURFACE('',#273,8.5);
#27=CYLINDRICAL_SURFACE('',#281,6.12500000000003);
#28=CYLINDRICAL_SURFACE('',#287,8.5);
#29=CYLINDRICAL_SURFACE('',#293,7.);
#30=CYLINDRICAL_SURFACE('',#300,7.25);
#31=CYLINDRICAL_SURFACE('',#306,6.07499999999999);
#32=FACE_BOUND('',#77,.T.);
#33=FACE_BOUND('',#79,.T.);
#34=FACE_BOUND('',#81,.T.);
#35=FACE_BOUND('',#83,.T.);
#36=FACE_BOUND('',#85,.T.);
#37=FACE_BOUND('',#87,.T.);
#38=FACE_BOUND('',#89,.T.);
#39=FACE_BOUND('',#91,.T.);
#40=FACE_BOUND('',#93,.T.);
#41=FACE_BOUND('',#95,.T.);
#42=FACE_BOUND('',#97,.T.);
#43=FACE_BOUND('',#99,.T.);
#44=FACE_BOUND('',#101,.T.);
#45=FACE_BOUND('',#103,.T.);
#46=FACE_BOUND('',#105,.T.);
#47=FACE_BOUND('',#107,.T.);
#48=FACE_BOUND('',#110,.T.);
#49=FACE_BOUND('',#112,.T.);
#50=FACE_BOUND('',#114,.T.);
#51=FACE_BOUND('',#116,.T.);
#52=FACE_BOUND('',#118,.T.);
#53=FACE_OUTER_BOUND('',#76,.T.);
#54=FACE_OUTER_BOUND('',#78,.T.);
#55=FACE_OUTER_BOUND('',#80,.T.);
#56=FACE_OUTER_BOUND('',#82,.T.);
#57=FACE_OUTER_BOUND('',#84,.T.);
#58=FACE_OUTER_BOUND('',#86,.T.);
#59=FACE_OUTER_BOUND('',#88,.T.);
#60=FACE_OUTER_BOUND('',#90,.T.);
#61=FACE_OUTER_BOUND('',#92,.T.);
#62=FACE_OUTER_BOUND('',#94,.T.);
#63=FACE_OUTER_BOUND('',#96,.T.);
#64=FACE_OUTER_BOUND('',#98,.T.);
#65=FACE_OUTER_BOUND('',#100,.T.);
#66=FACE_OUTER_BOUND('',#102,.T.);
#67=FACE_OUTER_BOUND('',#104,.T.);
#68=FACE_OUTER_BOUND('',#106,.T.);
#69=FACE_OUTER_BOUND('',#108,.T.);
#70=FACE_OUTER_BOUND('',#109,.T.);
#71=FACE_OUTER_BOUND('',#111,.T.);
#72=FACE_OUTER_BOUND('',#113,.T.);
#73=FACE_OUTER_BOUND('',#115,.T.);
#74=FACE_OUTER_BOUND('',#117,.T.);
#75=FACE_OUTER_BOUND('',#119,.T.);
#76=EDGE_LOOP('',(#186));
#77=EDGE_LOOP('',(#187));
#78=EDGE_LOOP('',(#188));
#79=EDGE_LOOP('',(#189));
#80=EDGE_LOOP('',(#190));
#81=EDGE_LOOP('',(#191));
#82=EDGE_LOOP('',(#192));
#83=EDGE_LOOP('',(#193));
#84=EDGE_LOOP('',(#194));
#85=EDGE_LOOP('',(#195));
#86=EDGE_LOOP('',(#196));
#87=EDGE_LOOP('',(#197));
#88=EDGE_LOOP('',(#198));
#89=EDGE_LOOP('',(#199));
#90=EDGE_LOOP('',(#200));
#91=EDGE_LOOP('',(#201));
#92=EDGE_LOOP('',(#202));
#93=EDGE_LOOP('',(#203));
#94=EDGE_LOOP('',(#204));
#95=EDGE_LOOP('',(#205));
#96=EDGE_LOOP('',(#206));
#97=EDGE_LOOP('',(#207));
#98=EDGE_LOOP('',(#208));
#99=EDGE_LOOP('',(#209));
#100=EDGE_LOOP('',(#210));
#101=EDGE_LOOP('',(#211));
#102=EDGE_LOOP('',(#212));
#103=EDGE_LOOP('',(#213));
#104=EDGE_LOOP('',(#214));
#105=EDGE_LOOP('',(#215));
#106=EDGE_LOOP('',(#216));
#107=EDGE_LOOP('',(#217));
#108=EDGE_LOOP('',(#218));
#109=EDGE_LOOP('',(#219));
#110=EDGE_LOOP('',(#220));
#111=EDGE_LOOP('',(#221));
#112=EDGE_LOOP('',(#222));
#113=EDGE_LOOP('',(#223));
#114=EDGE_LOOP('',(#224));
#115=EDGE_LOOP('',(#225));
#116=EDGE_LOOP('',(#226));
#117=EDGE_LOOP('',(#227));
#118=EDGE_LOOP('',(#228));
#119=EDGE_LOOP('',(#229));
#120=CIRCLE('',#265,6.4499999999999);
#121=CIRCLE('',#266,6.12500000000003);
#122=CIRCLE('',#268,6.4499999999999);
#123=CIRCLE('',#270,6.64999999999992);
#124=CIRCLE('',#272,8.5);
#125=CIRCLE('',#274,8.5);
#126=CIRCLE('',#276,8.);
#127=CIRCLE('',#278,6.62500000000006);
#128=CIRCLE('',#280,6.12500000000003);
#129=CIRCLE('',#283,8.29999999999999);
#130=CIRCLE('',#284,7.59641016151325);
#131=CIRCLE('',#286,8.5);
#132=CIRCLE('',#288,8.5);
#133=CIRCLE('',#290,8.);
#134=CIRCLE('',#292,7.);
#135=CIRCLE('',#294,7.);
#136=CIRCLE('',#296,6.49999999999999);
#137=CIRCLE('',#299,7.25);
#138=CIRCLE('',#301,7.25);
#139=CIRCLE('',#303,6.57499999999999);
#140=CIRCLE('',#305,6.07499999999999);
#141=CIRCLE('',#307,6.07499999999999);
#142=VERTEX_POINT('',#403);
#143=VERTEX_POINT('',#405);
#144=VERTEX_POINT('',#408);
#145=VERTEX_POINT('',#411);
#146=VERTEX_POINT('',#414);
#147=VERTEX_POINT('',#417);
#148=VERTEX_POINT('',#420);
#149=VERTEX_POINT('',#423);
#150=VERTEX_POINT('',#426);
#151=VERTEX_POINT('',#430);
#152=VERTEX_POINT('',#432);
#153=VERTEX_POINT('',#435);
#154=VERTEX_POINT('',#438);
#155=VERTEX_POINT('',#441);
#156=VERTEX_POINT('',#444);
#157=VERTEX_POINT('',#447);
#158=VERTEX_POINT('',#450);
#159=VERTEX_POINT('',#454);
#160=VERTEX_POINT('',#457);
#161=VERTEX_POINT('',#460);
#162=VERTEX_POINT('',#463);
#163=VERTEX_POINT('',#466);
#164=EDGE_CURVE('',#142,#142,#120,.T.);
#165=EDGE_CURVE('',#143,#143,#121,.T.);
#166=EDGE_CURVE('',#144,#144,#122,.T.);
#167=EDGE_CURVE('',#145,#145,#123,.T.);
#168=EDGE_CURVE('',#146,#146,#124,.T.);
#169=EDGE_CURVE('',#147,#147,#125,.T.);
#170=EDGE_CURVE('',#148,#148,#126,.T.);
#171=EDGE_CURVE('',#149,#149,#127,.T.);
#172=EDGE_CURVE('',#150,#150,#128,.T.);
#173=EDGE_CURVE('',#151,#151,#129,.T.);
#174=EDGE_CURVE('',#152,#152,#130,.T.);
#175=EDGE_CURVE('',#153,#153,#131,.T.);
#176=EDGE_CURVE('',#154,#154,#132,.T.);
#177=EDGE_CURVE('',#155,#155,#133,.T.);
#178=EDGE_CURVE('',#156,#156,#134,.T.);
#179=EDGE_CURVE('',#157,#157,#135,.T.);
#180=EDGE_CURVE('',#158,#158,#136,.T.);
#181=EDGE_CURVE('',#159,#159,#137,.T.);
#182=EDGE_CURVE('',#160,#160,#138,.T.);
#183=EDGE_CURVE('',#161,#161,#139,.T.);
#184=EDGE_CURVE('',#162,#162,#140,.T.);
#185=EDGE_CURVE('',#163,#163,#141,.T.);
#186=ORIENTED_EDGE('',*,*,#164,.T.);
#187=ORIENTED_EDGE('',*,*,#165,.F.);
#188=ORIENTED_EDGE('',*,*,#164,.F.);
#189=ORIENTED_EDGE('',*,*,#166,.T.);
#190=ORIENTED_EDGE('',*,*,#166,.F.);
#191=ORIENTED_EDGE('',*,*,#167,.T.);
#192=ORIENTED_EDGE('',*,*,#168,.T.);
#193=ORIENTED_EDGE('',*,*,#167,.F.);
#194=ORIENTED_EDGE('',*,*,#168,.F.);
#195=ORIENTED_EDGE('',*,*,#169,.T.);
#196=ORIENTED_EDGE('',*,*,#169,.F.);
#197=ORIENTED_EDGE('',*,*,#170,.T.);
#198=ORIENTED_EDGE('',*,*,#170,.F.);
#199=ORIENTED_EDGE('',*,*,#171,.T.);
#200=ORIENTED_EDGE('',*,*,#171,.F.);
#201=ORIENTED_EDGE('',*,*,#172,.T.);
#202=ORIENTED_EDGE('',*,*,#172,.F.);
#203=ORIENTED_EDGE('',*,*,#165,.T.);
#204=ORIENTED_EDGE('',*,*,#173,.T.);
#205=ORIENTED_EDGE('',*,*,#174,.F.);
#206=ORIENTED_EDGE('',*,*,#175,.T.);
#207=ORIENTED_EDGE('',*,*,#173,.F.);
#208=ORIENTED_EDGE('',*,*,#176,.T.);
#209=ORIENTED_EDGE('',*,*,#175,.F.);
#210=ORIENTED_EDGE('',*,*,#177,.T.);
#211=ORIENTED_EDGE('',*,*,#176,.F.);
#212=ORIENTED_EDGE('',*,*,#177,.F.);
#213=ORIENTED_EDGE('',*,*,#178,.T.);
#214=ORIENTED_EDGE('',*,*,#179,.T.);
#215=ORIENTED_EDGE('',*,*,#178,.F.);
#216=ORIENTED_EDGE('',*,*,#180,.T.);
#217=ORIENTED_EDGE('',*,*,#179,.F.);
#218=ORIENTED_EDGE('',*,*,#180,.F.);
#219=ORIENTED_EDGE('',*,*,#174,.T.);
#220=ORIENTED_EDGE('',*,*,#181,.F.);
#221=ORIENTED_EDGE('',*,*,#181,.T.);
#222=ORIENTED_EDGE('',*,*,#182,.F.);
#223=ORIENTED_EDGE('',*,*,#182,.T.);
#224=ORIENTED_EDGE('',*,*,#183,.F.);
#225=ORIENTED_EDGE('',*,*,#183,.T.);
#226=ORIENTED_EDGE('',*,*,#184,.F.);
#227=ORIENTED_EDGE('',*,*,#184,.T.);
#228=ORIENTED_EDGE('',*,*,#185,.F.);
#229=ORIENTED_EDGE('',*,*,#185,.T.);
#230=PLANE('',#264);
#231=PLANE('',#271);
#232=PLANE('',#277);
#233=PLANE('',#282);
#234=PLANE('',#291);
#235=PLANE('',#297);
#236=PLANE('',#302);
#237=PLANE('',#308);
#238=ADVANCED_FACE('',(#53,#32),#230,.T.);
#239=ADVANCED_FACE('',(#54,#33),#25,.T.);
#240=ADVANCED_FACE('',(#55,#34),#24,.F.);
#241=ADVANCED_FACE('',(#56,#35),#231,.T.);
#242=ADVANCED_FACE('',(#57,#36),#26,.T.);
#243=ADVANCED_FACE('',(#58,#37),#17,.T.);
#244=ADVANCED_FACE('',(#59,#38),#232,.T.);
#245=ADVANCED_FACE('',(#60,#39),#18,.F.);
#246=ADVANCED_FACE('',(#61,#40),#27,.F.);
#247=ADVANCED_FACE('',(#62,#41),#233,.T.);
#248=ADVANCED_FACE('',(#63,#42),#19,.T.);
#249=ADVANCED_FACE('',(#64,#43),#28,.T.);
#250=ADVANCED_FACE('',(#65,#44),#20,.T.);
#251=ADVANCED_FACE('',(#66,#45),#234,.T.);
#252=ADVANCED_FACE('',(#67,#46),#29,.T.);
#253=ADVANCED_FACE('',(#68,#47),#21,.T.);
#254=ADVANCED_FACE('',(#69),#235,.T.);
#255=ADVANCED_FACE('',(#70,#48),#22,.F.);
#256=ADVANCED_FACE('',(#71,#49),#30,.F.);
#257=ADVANCED_FACE('',(#72,#50),#236,.T.);
#258=ADVANCED_FACE('',(#73,#51),#23,.F.);
#259=ADVANCED_FACE('',(#74,#52),#31,.F.);
#260=ADVANCED_FACE('',(#75),#237,.T.);
#261=CLOSED_SHELL('',(#238,#239,#240,#241,#242,#243,#244,#245,#246));
#262=CLOSED_SHELL('',(#247,#248,#249,#250,#251,#252,#253,#254,#255,#256,
#257,#258,#259,#260));
#263=AXIS2_PLACEMENT_3D('placement',#401,#309,#310);
#264=AXIS2_PLACEMENT_3D('',#402,#311,#312);
#265=AXIS2_PLACEMENT_3D('',#404,#313,#314);
#266=AXIS2_PLACEMENT_3D('',#406,#315,#316);
#267=AXIS2_PLACEMENT_3D('',#407,#317,#318);
#268=AXIS2_PLACEMENT_3D('',#409,#319,#320);
#269=AXIS2_PLACEMENT_3D('',#410,#321,#322);
#270=AXIS2_PLACEMENT_3D('',#412,#323,#324);
#271=AXIS2_PLACEMENT_3D('',#413,#325,#326);
#272=AXIS2_PLACEMENT_3D('',#415,#327,#328);
#273=AXIS2_PLACEMENT_3D('',#416,#329,#330);
#274=AXIS2_PLACEMENT_3D('',#418,#331,#332);
#275=AXIS2_PLACEMENT_3D('',#419,#333,#334);
#276=AXIS2_PLACEMENT_3D('',#421,#335,#336);
#277=AXIS2_PLACEMENT_3D('',#422,#337,#338);
#278=AXIS2_PLACEMENT_3D('',#424,#339,#340);
#279=AXIS2_PLACEMENT_3D('',#425,#341,#342);
#280=AXIS2_PLACEMENT_3D('',#427,#343,#344);
#281=AXIS2_PLACEMENT_3D('',#428,#345,#346);
#282=AXIS2_PLACEMENT_3D('',#429,#347,#348);
#283=AXIS2_PLACEMENT_3D('',#431,#349,#350);
#284=AXIS2_PLACEMENT_3D('',#433,#351,#352);
#285=AXIS2_PLACEMENT_3D('',#434,#353,#354);
#286=AXIS2_PLACEMENT_3D('',#436,#355,#356);
#287=AXIS2_PLACEMENT_3D('',#437,#357,#358);
#288=AXIS2_PLACEMENT_3D('',#439,#359,#360);
#289=AXIS2_PLACEMENT_3D('',#440,#361,#362);
#290=AXIS2_PLACEMENT_3D('',#442,#363,#364);
#291=AXIS2_PLACEMENT_3D('',#443,#365,#366);
#292=AXIS2_PLACEMENT_3D('',#445,#367,#368);
#293=AXIS2_PLACEMENT_3D('',#446,#369,#370);
#294=AXIS2_PLACEMENT_3D('',#448,#371,#372);
#295=AXIS2_PLACEMENT_3D('',#449,#373,#374);
#296=AXIS2_PLACEMENT_3D('',#451,#375,#376);
#297=AXIS2_PLACEMENT_3D('',#452,#377,#378);
#298=AXIS2_PLACEMENT_3D('',#453,#379,#380);
#299=AXIS2_PLACEMENT_3D('',#455,#381,#382);
#300=AXIS2_PLACEMENT_3D('',#456,#383,#384);
#301=AXIS2_PLACEMENT_3D('',#458,#385,#386);
#302=AXIS2_PLACEMENT_3D('',#459,#387,#388);
#303=AXIS2_PLACEMENT_3D('',#461,#389,#390);
#304=AXIS2_PLACEMENT_3D('',#462,#391,#392);
#305=AXIS2_PLACEMENT_3D('',#464,#393,#394);
#306=AXIS2_PLACEMENT_3D('',#465,#395,#396);
#307=AXIS2_PLACEMENT_3D('',#467,#397,#398);
#308=AXIS2_PLACEMENT_3D('',#468,#399,#400);
#309=DIRECTION('axis',(0.,0.,1.));
#310=DIRECTION('refdir',(1.,0.,0.));
#311=DIRECTION('center_axis',(0.,0.,-1.));
#312=DIRECTION('ref_axis',(-1.,0.,0.));
#313=DIRECTION('center_axis',(0.,0.,-1.));
#314=DIRECTION('ref_axis',(1.,0.,0.));
#315=DIRECTION('center_axis',(0.,0.,-1.));
#316=DIRECTION('ref_axis',(1.,0.,0.));
#317=DIRECTION('center_axis',(0.,0.,1.));
#318=DIRECTION('ref_axis',(1.,0.,0.));
#319=DIRECTION('center_axis',(0.,0.,-1.));
#320=DIRECTION('ref_axis',(1.,0.,0.));
#321=DIRECTION('center_axis',(0.,0.,-1.));
#322=DIRECTION('ref_axis',(1.,0.,0.));
#323=DIRECTION('center_axis',(0.,0.,-1.));
#324=DIRECTION('ref_axis',(1.,0.,0.));
#325=DIRECTION('center_axis',(0.,0.,-1.));
#326=DIRECTION('ref_axis',(-1.,0.,0.));
#327=DIRECTION('center_axis',(0.,0.,-1.));
#328=DIRECTION('ref_axis',(1.,0.,0.));
#329=DIRECTION('center_axis',(0.,0.,1.));
#330=DIRECTION('ref_axis',(1.,0.,0.));
#331=DIRECTION('center_axis',(0.,0.,-1.));
#332=DIRECTION('ref_axis',(1.,0.,0.));
#333=DIRECTION('center_axis',(0.,0.,-1.));
#334=DIRECTION('ref_axis',(1.,0.,0.));
#335=DIRECTION('center_axis',(0.,0.,-1.));
#336=DIRECTION('ref_axis',(1.,0.,0.));
#337=DIRECTION('center_axis',(0.,0.,1.));
#338=DIRECTION('ref_axis',(1.,0.,0.));
#339=DIRECTION('center_axis',(0.,0.,-1.));
#340=DIRECTION('ref_axis',(1.,0.,0.));
#341=DIRECTION('center_axis',(0.,0.,1.));
#342=DIRECTION('ref_axis',(1.,0.,0.));
#343=DIRECTION('center_axis',(0.,0.,-1.));
#344=DIRECTION('ref_axis',(1.,0.,0.));
#345=DIRECTION('center_axis',(0.,0.,-1.));
#346=DIRECTION('ref_axis',(1.,0.,0.));
#347=DIRECTION('center_axis',(0.,0.,1.));
#348=DIRECTION('ref_axis',(1.,0.,0.));
#349=DIRECTION('center_axis',(0.,0.,1.));
#350=DIRECTION('ref_axis',(1.,0.,0.));
#351=DIRECTION('center_axis',(0.,0.,1.));
#352=DIRECTION('ref_axis',(0.,1.,0.));
#353=DIRECTION('center_axis',(0.,0.,-1.));
#354=DIRECTION('ref_axis',(1.,0.,0.));
#355=DIRECTION('center_axis',(0.,0.,1.));
#356=DIRECTION('ref_axis',(1.,0.,0.));
#357=DIRECTION('center_axis',(0.,0.,1.));
#358=DIRECTION('ref_axis',(1.,0.,0.));
#359=DIRECTION('center_axis',(0.,0.,1.));
#360=DIRECTION('ref_axis',(1.,0.,0.));
#361=DIRECTION('center_axis',(0.,0.,1.));
#362=DIRECTION('ref_axis',(1.,0.,0.));
#363=DIRECTION('center_axis',(0.,0.,1.));
#364=DIRECTION('ref_axis',(1.,0.,0.));
#365=DIRECTION('center_axis',(0.,0.,-1.));
#366=DIRECTION('ref_axis',(-1.,0.,0.));
#367=DIRECTION('center_axis',(0.,0.,1.));
#368=DIRECTION('ref_axis',(1.,0.,0.));
#369=DIRECTION('center_axis',(0.,0.,1.));
#370=DIRECTION('ref_axis',(1.,0.,0.));
#371=DIRECTION('center_axis',(0.,0.,1.));
#372=DIRECTION('ref_axis',(1.,0.,0.));
#373=DIRECTION('center_axis',(0.,0.,1.));
#374=DIRECTION('ref_axis',(1.,0.,0.));
#375=DIRECTION('center_axis',(0.,0.,1.));
#376=DIRECTION('ref_axis',(1.,0.,0.));
#377=DIRECTION('center_axis',(0.,0.,-1.));
#378=DIRECTION('ref_axis',(-1.,0.,0.));
#379=DIRECTION('center_axis',(-2.84192936314068E-14,0.,1.));
#380=DIRECTION('ref_axis',(1.,0.,2.84192936314068E-14));
#381=DIRECTION('center_axis',(0.,0.,1.));
#382=DIRECTION('ref_axis',(1.,0.,0.));
#383=DIRECTION('center_axis',(2.84857222894815E-14,0.,-1.));
#384=DIRECTION('ref_axis',(1.,0.,2.84857222894815E-14));
#385=DIRECTION('center_axis',(0.,0.,1.));
#386=DIRECTION('ref_axis',(1.,0.,0.));
#387=DIRECTION('center_axis',(-2.8421709430404E-14,0.,1.));
#388=DIRECTION('ref_axis',(1.,0.,2.8421709430404E-14));
#389=DIRECTION('center_axis',(0.,0.,1.));
#390=DIRECTION('ref_axis',(1.,0.,0.));
#391=DIRECTION('center_axis',(-2.83676757622862E-14,0.,1.));
#392=DIRECTION('ref_axis',(1.,0.,2.83676757622862E-14));
#393=DIRECTION('center_axis',(0.,0.,1.));
#394=DIRECTION('ref_axis',(1.,0.,0.));
#395=DIRECTION('center_axis',(2.8421709430404E-14,0.,-1.));
#396=DIRECTION('ref_axis',(1.,0.,2.8421709430404E-14));
#397=DIRECTION('center_axis',(0.,0.,1.));
#398=DIRECTION('ref_axis',(1.,0.,0.));
#399=DIRECTION('center_axis',(-2.8421709430404E-14,0.,1.));
#400=DIRECTION('ref_axis',(1.,0.,2.8421709430404E-14));
#401=CARTESIAN_POINT('',(0.,0.,0.));
#402=CARTESIAN_POINT('Origin',(13.9313585390094,11.2667375100197,10.982367822094));
#403=CARTESIAN_POINT('',(14.2563585390093,11.2667375100197,10.982367822094));
#404=CARTESIAN_POINT('Origin',(7.80635853900941,11.2667375100197,10.982367822094));
#405=CARTESIAN_POINT('',(13.9313585390094,11.2667375100197,10.982367822094));
#406=CARTESIAN_POINT('Origin',(7.80635853900941,11.2667375100197,10.982367822094));
#407=CARTESIAN_POINT('Origin',(7.80635853900941,11.2667375100197,10.982367822094));
#408=CARTESIAN_POINT('',(14.2563585390093,11.2667375100197,21.982367822094));
#409=CARTESIAN_POINT('Origin',(7.80635853900941,11.2667375100197,21.982367822094));
#410=CARTESIAN_POINT('Origin',(7.80635853900941,11.2667375100197,21.982367822094));
#411=CARTESIAN_POINT('',(14.4563585390093,11.2667375100197,22.182367822094));
#412=CARTESIAN_POINT('Origin',(7.80635853900941,11.2667375100197,22.182367822094));
#413=CARTESIAN_POINT('Origin',(14.4563585390093,11.2667375100197,22.182367822094));
#414=CARTESIAN_POINT('',(16.3063585390094,11.2667375100197,22.182367822094));
#415=CARTESIAN_POINT('Origin',(7.80635853900941,11.2667375100197,22.182367822094));
#416=CARTESIAN_POINT('Origin',(7.80635853900941,11.2667375100197,22.182367822094));
#417=CARTESIAN_POINT('',(16.3063585390094,11.2667375100197,23.182367822094));
#418=CARTESIAN_POINT('Origin',(7.80635853900941,11.2667375100197,23.182367822094));
#419=CARTESIAN_POINT('Origin',(7.80635853900941,11.2667375100197,23.182367822094));
#420=CARTESIAN_POINT('',(15.8063585390094,11.2667375100197,23.682367822094));
#421=CARTESIAN_POINT('Origin',(7.80635853900941,11.2667375100197,23.682367822094));
#422=CARTESIAN_POINT('Origin',(15.8063585390094,11.2667375100197,23.682367822094));
#423=CARTESIAN_POINT('',(14.4313585390095,11.2667375100197,23.682367822094));
#424=CARTESIAN_POINT('Origin',(7.80635853900941,11.2667375100197,23.682367822094));
#425=CARTESIAN_POINT('Origin',(7.80635853900941,11.2667375100197,23.682367822094));
#426=CARTESIAN_POINT('',(13.9313585390094,11.2667375100197,23.182367822094));
#427=CARTESIAN_POINT('Origin',(7.80635853900941,11.2667375100197,23.182367822094));
#428=CARTESIAN_POINT('Origin',(7.80635853900941,11.2667375100197,23.182367822094));
#429=CARTESIAN_POINT('Origin',(16.1063585390094,11.2667375100197,20.6823678220937));
#430=CARTESIAN_POINT('',(16.1063585390094,11.2667375100197,20.6823678220937));
#431=CARTESIAN_POINT('Origin',(7.80635853900939,11.2667375100197,20.6823678220937));
#432=CARTESIAN_POINT('',(7.80635853900899,18.863147671533,20.6823678220937));
#433=CARTESIAN_POINT('Origin',(7.80635853900899,11.2667375100197,20.6823678220937));
#434=CARTESIAN_POINT('Origin',(7.80635853900939,11.2667375100197,20.4823678220937));
#435=CARTESIAN_POINT('',(16.3063585390094,11.2667375100197,20.4823678220937));
#436=CARTESIAN_POINT('Origin',(7.80635853900939,11.2667375100197,20.4823678220937));
#437=CARTESIAN_POINT('Origin',(7.80635853900939,11.2667375100197,3.98236782209368));
#438=CARTESIAN_POINT('',(16.3063585390094,11.2667375100197,3.98236782209368));
#439=CARTESIAN_POINT('Origin',(7.80635853900939,11.2667375100197,3.98236782209368));
#440=CARTESIAN_POINT('Origin',(7.80635853900939,11.2667375100197,3.98236782209368));
#441=CARTESIAN_POINT('',(15.8063585390094,11.2667375100197,3.48236782209368));
#442=CARTESIAN_POINT('Origin',(7.80635853900939,11.2667375100197,3.48236782209368));
#443=CARTESIAN_POINT('Origin',(14.8063585390094,11.2667375100197,3.48236782209368));
#444=CARTESIAN_POINT('',(14.8063585390094,11.2667375100197,3.48236782209368));
#445=CARTESIAN_POINT('Origin',(7.80635853900939,11.2667375100197,3.48236782209368));
#446=CARTESIAN_POINT('Origin',(7.80635853900939,11.2667375100197,1.98236782209368));
#447=CARTESIAN_POINT('',(14.8063585390094,11.2667375100197,1.98236782209368));
#448=CARTESIAN_POINT('Origin',(7.80635853900939,11.2667375100197,1.98236782209368));
#449=CARTESIAN_POINT('Origin',(7.80635853900939,11.2667375100197,1.98236782209368));
#450=CARTESIAN_POINT('',(14.3063585390094,11.2667375100197,1.48236782209368));
#451=CARTESIAN_POINT('Origin',(7.80635853900939,11.2667375100197,1.48236782209368));
#452=CARTESIAN_POINT('Origin',(7.80635853900939,11.2667375100197,1.48236782209368));
#453=CARTESIAN_POINT('Origin',(7.80635853900862,11.2667375100197,20.6823678220948));
#454=CARTESIAN_POINT('',(15.0563585390086,11.2667375100197,20.0823678220948));
#455=CARTESIAN_POINT('Origin',(7.80635853900863,11.2667375100197,20.0823678220948));
#456=CARTESIAN_POINT('Origin',(7.80635853900863,11.2667375100197,20.0823678220948));
#457=CARTESIAN_POINT('',(15.056358539009,11.2667375100197,8.98236782209481));
#458=CARTESIAN_POINT('Origin',(7.80635853900895,11.2667375100197,8.98236782209481));
#459=CARTESIAN_POINT('Origin',(15.056358539009,11.2667375100197,8.98236782209481));
#460=CARTESIAN_POINT('',(14.3813585390089,11.2667375100197,8.98236782209482));
#461=CARTESIAN_POINT('Origin',(7.80635853900895,11.2667375100197,8.98236782209482));
#462=CARTESIAN_POINT('Origin',(7.80635853900895,11.2667375100197,8.98236782209482));
#463=CARTESIAN_POINT('',(13.881358539009,11.2667375100197,8.48236782209483));
#464=CARTESIAN_POINT('Origin',(7.80635853900896,11.2667375100197,8.48236782209483));
#465=CARTESIAN_POINT('Origin',(7.80635853900896,11.2667375100197,8.48236782209483));
#466=CARTESIAN_POINT('',(13.8813585390091,11.2667375100197,3.48236782209483));
#467=CARTESIAN_POINT('Origin',(7.80635853900911,11.2667375100197,3.48236782209483));
#468=CARTESIAN_POINT('Origin',(13.8813585390091,11.2667375100197,3.48236782209483));
#469=UNCERTAINTY_MEASURE_WITH_UNIT(LENGTH_MEASURE(0.01),#473,
'DISTANCE_ACCURACY_VALUE',
'Maximum model space distance between geometric entities at asserted c
onnectivities');
#470=UNCERTAINTY_MEASURE_WITH_UNIT(LENGTH_MEASURE(1.E-6),#473,
'DISTANCE_ACCURACY_VALUE',
'Maximum model space distance between geometric entities at asserted c
onnectivities');
#471=(
GEOMETRIC_REPRESENTATION_CONTEXT(3)
GLOBAL_UNCERTAINTY_ASSIGNED_CONTEXT((#469))
GLOBAL_UNIT_ASSIGNED_CONTEXT((#473,#476,#474))
REPRESENTATION_CONTEXT('','3D')
);
#472=(
GEOMETRIC_REPRESENTATION_CONTEXT(3)
GLOBAL_UNCERTAINTY_ASSIGNED_CONTEXT((#470))
GLOBAL_UNIT_ASSIGNED_CONTEXT((#473,#476,#474))
REPRESENTATION_CONTEXT('','3D')
);
#473=(
LENGTH_UNIT()
NAMED_UNIT(*)
SI_UNIT(.MILLI.,.METRE.)
);
#474=(
NAMED_UNIT(*)
SI_UNIT($,.STERADIAN.)
SOLID_ANGLE_UNIT()
);
#475=DIMENSIONAL_EXPONENTS(0.,0.,0.,0.,0.,0.,0.);
#476=(
CONVERSION_BASED_UNIT('degree',#478)
NAMED_UNIT(#475)
PLANE_ANGLE_UNIT()
);
#477=(
NAMED_UNIT(*)
PLANE_ANGLE_UNIT()
SI_UNIT($,.RADIAN.)
);
#478=PLANE_ANGLE_MEASURE_WITH_UNIT(PLANE_ANGLE_MEASURE(0.01745329252),#477);
#479=SHAPE_DEFINITION_REPRESENTATION(#480,#481);
#480=PRODUCT_DEFINITION_SHAPE('',$,#483);
#481=SHAPE_REPRESENTATION('',(#263),#471);
#482=PRODUCT_DEFINITION_CONTEXT('part definition',#487,'design');
#483=PRODUCT_DEFINITION('iqsc_120_msv','iqsc_120_msv',#484,#482);
#484=PRODUCT_DEFINITION_FORMATION('',$,#489);
#485=PRODUCT_RELATED_PRODUCT_CATEGORY('iqsc_120_msv','iqsc_120_msv',(#489));
#486=APPLICATION_PROTOCOL_DEFINITION('international standard',
'automotive_design',2009,#487);
#487=APPLICATION_CONTEXT(
'Core Data for Automotive Mechanical Design Process');
#488=PRODUCT_CONTEXT('part definition',#487,'mechanical');
#489=PRODUCT('iqsc_120_msv','iqsc_120_msv',$,(#488));
#490=PRESENTATION_STYLE_ASSIGNMENT((#493));
#491=PRESENTATION_STYLE_ASSIGNMENT((#494));
#492=PRESENTATION_STYLE_ASSIGNMENT((#495));
#493=SURFACE_STYLE_USAGE(.BOTH.,#496);
#494=SURFACE_STYLE_USAGE(.BOTH.,#497);
#495=SURFACE_STYLE_USAGE(.BOTH.,#498);
#496=SURFACE_SIDE_STYLE($,(#499));
#497=SURFACE_SIDE_STYLE($,(#500));
#498=SURFACE_SIDE_STYLE($,(#501));
#499=SURFACE_STYLE_FILL_AREA(#502);
#500=SURFACE_STYLE_FILL_AREA(#503);
#501=SURFACE_STYLE_FILL_AREA(#504);
#502=FILL_AREA_STYLE($,(#505));
#503=FILL_AREA_STYLE($,(#506));
#504=FILL_AREA_STYLE($,(#507));
#505=FILL_AREA_STYLE_COLOUR($,#508);
#506=FILL_AREA_STYLE_COLOUR($,#509);
#507=FILL_AREA_STYLE_COLOUR($,#510);
#508=COLOUR_RGB('',0.749019607843137,0.749019607843137,0.749019607843137);
#509=COLOUR_RGB('',0.619607843137255,0.568627450980392,0.662745098039216);
#510=COLOUR_RGB('',0.831372549019608,0.792156862745098,0.819607843137255);
ENDSEC;
END-ISO-10303-21;
