ISO-10303-21;
HEADER;
/* Generated by software containing ST-Developer
 * from STEP Tools, Inc. (www.steptools.com) 
 */

FILE_DESCRIPTION(
/* description */ (''),
/* implementation_level */ '2;1');

FILE_NAME(
/* name */ 'H:\\cad\\neutral\\3d\\73328\\sd_10.stp',
/* time_stamp */ '2017-08-07T12:07:38+02:00',
/* author */ ('Hamoud'),
/* organization */ (''),
/* preprocessor_version */ 'ST-DEVELOPER v15.6',
/* originating_system */ 'Autodesk Inventor LT ',
/* authorisation */ '');

FILE_SCHEMA (('AUTOMOTIVE_DESIGN { 1 0 10303 214 3 1 1 }'));
ENDSEC;

DATA;
#10=MECHANICAL_DESIGN_GEOMETRIC_PRESENTATION_REPRESENTATION('',(#13),#315);
#11=SHAPE_REPRESENTATION_RELATIONSHIP('SRR','None',#324,#12);
#12=ADVANCED_BREP_SHAPE_REPRESENTATION($,(#14),#314);
#13=STYLED_ITEM('',(#333),#14);
#14=MANIFOLD_SOLID_BREP('Volumenk\X\F6rper1',#176);
#15=CYLINDRICAL_SURFACE('',#198,10.75);
#16=CYLINDRICAL_SURFACE('',#201,16.65);
#17=LINE('',#269,#21);
#18=LINE('',#274,#22);
#19=LINE('',#282,#23);
#20=LINE('',#287,#24);
#21=VECTOR('',#212,26.8031714541395);
#22=VECTOR('',#213,26.1963737948595);
#23=VECTOR('',#216,26.8031714541395);
#24=VECTOR('',#217,26.1963737948595);
#25=(
BOUNDED_CURVE()
B_SPLINE_CURVE(2,(#265,#266,#267),.UNSPECIFIED.,.F.,.F.)
B_SPLINE_CURVE_WITH_KNOTS((3,3),(0.,0.401148985432045),.UNSPECIFIED.)
CURVE()
GEOMETRIC_REPRESENTATION_ITEM()
RATIONAL_B_SPLINE_CURVE((1.,1.00006408667305,1.))
REPRESENTATION_ITEM('')
);
#26=(
BOUNDED_CURVE()
B_SPLINE_CURVE(2,(#271,#272,#273),.UNSPECIFIED.,.F.,.F.)
B_SPLINE_CURVE_WITH_KNOTS((3,3),(0.,0.401148985432045),.UNSPECIFIED.)
CURVE()
GEOMETRIC_REPRESENTATION_ITEM()
RATIONAL_B_SPLINE_CURVE((1.,1.00006408667305,1.))
REPRESENTATION_ITEM('')
);
#27=(
BOUNDED_CURVE()
B_SPLINE_CURVE(2,(#278,#279,#280),.UNSPECIFIED.,.F.,.F.)
B_SPLINE_CURVE_WITH_KNOTS((3,3),(0.,0.401148985432045),.UNSPECIFIED.)
CURVE()
GEOMETRIC_REPRESENTATION_ITEM()
RATIONAL_B_SPLINE_CURVE((1.,1.00006408672008,1.))
REPRESENTATION_ITEM('')
);
#28=(
BOUNDED_CURVE()
B_SPLINE_CURVE(2,(#284,#285,#286),.UNSPECIFIED.,.F.,.F.)
B_SPLINE_CURVE_WITH_KNOTS((3,3),(0.,0.401148985432045),.UNSPECIFIED.)
CURVE()
GEOMETRIC_REPRESENTATION_ITEM()
RATIONAL_B_SPLINE_CURVE((1.,1.00006408672008,1.))
REPRESENTATION_ITEM('')
);
#29=PLANE('',#181);
#30=PLANE('',#182);
#31=PLANE('',#183);
#32=PLANE('',#185);
#33=PLANE('',#187);
#34=PLANE('',#193);
#35=PLANE('',#194);
#36=PLANE('',#200);
#37=FACE_BOUND('',#58,.T.);
#38=FACE_BOUND('',#64,.T.);
#39=FACE_BOUND('',#66,.T.);
#40=FACE_BOUND('',#70,.T.);
#41=FACE_BOUND('',#72,.T.);
#42=FACE_BOUND('',#74,.T.);
#43=FACE_BOUND('',#76,.T.);
#44=FACE_OUTER_BOUND('',#57,.T.);
#45=FACE_OUTER_BOUND('',#59,.T.);
#46=FACE_OUTER_BOUND('',#60,.T.);
#47=FACE_OUTER_BOUND('',#61,.T.);
#48=FACE_OUTER_BOUND('',#62,.T.);
#49=FACE_OUTER_BOUND('',#63,.T.);
#50=FACE_OUTER_BOUND('',#65,.T.);
#51=FACE_OUTER_BOUND('',#67,.T.);
#52=FACE_OUTER_BOUND('',#68,.T.);
#53=FACE_OUTER_BOUND('',#69,.T.);
#54=FACE_OUTER_BOUND('',#71,.T.);
#55=FACE_OUTER_BOUND('',#73,.T.);
#56=FACE_OUTER_BOUND('',#75,.T.);
#57=EDGE_LOOP('',(#122));
#58=EDGE_LOOP('',(#123));
#59=EDGE_LOOP('',(#124,#125,#126,#127));
#60=EDGE_LOOP('',(#128,#129,#130,#131));
#61=EDGE_LOOP('',(#132,#133));
#62=EDGE_LOOP('',(#134,#135));
#63=EDGE_LOOP('',(#136));
#64=EDGE_LOOP('',(#137));
#65=EDGE_LOOP('',(#138,#139,#140,#141,#142,#143,#144,#145));
#66=EDGE_LOOP('',(#146));
#67=EDGE_LOOP('',(#147,#148,#149,#150));
#68=EDGE_LOOP('',(#151));
#69=EDGE_LOOP('',(#152));
#70=EDGE_LOOP('',(#153));
#71=EDGE_LOOP('',(#154));
#72=EDGE_LOOP('',(#155));
#73=EDGE_LOOP('',(#156));
#74=EDGE_LOOP('',(#157));
#75=EDGE_LOOP('',(#158));
#76=EDGE_LOOP('',(#159));
#77=CIRCLE('',#179,16.65);
#78=CIRCLE('',#180,13.7);
#79=CIRCLE('',#184,13.25);
#80=CIRCLE('',#186,13.25);
#81=CIRCLE('',#188,17.75);
#82=CIRCLE('',#189,16.65);
#83=CIRCLE('',#191,13.55);
#84=CIRCLE('',#192,13.55);
#85=CIRCLE('',#195,7.5);
#86=CIRCLE('',#197,10.75);
#87=CIRCLE('',#199,10.75);
#88=VERTEX_POINT('',#258);
#89=VERTEX_POINT('',#260);
#90=VERTEX_POINT('',#263);
#91=VERTEX_POINT('',#264);
#92=VERTEX_POINT('',#268);
#93=VERTEX_POINT('',#270);
#94=VERTEX_POINT('',#276);
#95=VERTEX_POINT('',#277);
#96=VERTEX_POINT('',#281);
#97=VERTEX_POINT('',#283);
#98=VERTEX_POINT('',#293);
#99=VERTEX_POINT('',#295);
#100=VERTEX_POINT('',#302);
#101=VERTEX_POINT('',#305);
#102=VERTEX_POINT('',#308);
#103=EDGE_CURVE('',#88,#88,#77,.T.);
#104=EDGE_CURVE('',#89,#89,#78,.T.);
#105=EDGE_CURVE('',#90,#91,#25,.T.);
#106=EDGE_CURVE('',#92,#90,#17,.T.);
#107=EDGE_CURVE('',#93,#92,#26,.T.);
#108=EDGE_CURVE('',#91,#93,#18,.T.);
#109=EDGE_CURVE('',#94,#95,#27,.T.);
#110=EDGE_CURVE('',#94,#96,#19,.T.);
#111=EDGE_CURVE('',#97,#96,#28,.T.);
#112=EDGE_CURVE('',#95,#97,#20,.T.);
#113=EDGE_CURVE('',#93,#91,#79,.T.);
#114=EDGE_CURVE('',#97,#95,#80,.T.);
#115=EDGE_CURVE('',#98,#98,#81,.T.);
#116=EDGE_CURVE('',#99,#99,#82,.T.);
#117=EDGE_CURVE('',#96,#90,#83,.T.);
#118=EDGE_CURVE('',#92,#94,#84,.T.);
#119=EDGE_CURVE('',#100,#100,#85,.T.);
#120=EDGE_CURVE('',#101,#101,#86,.T.);
#121=EDGE_CURVE('',#102,#102,#87,.T.);
#122=ORIENTED_EDGE('',*,*,#103,.F.);
#123=ORIENTED_EDGE('',*,*,#104,.F.);
#124=ORIENTED_EDGE('',*,*,#105,.F.);
#125=ORIENTED_EDGE('',*,*,#106,.F.);
#126=ORIENTED_EDGE('',*,*,#107,.F.);
#127=ORIENTED_EDGE('',*,*,#108,.F.);
#128=ORIENTED_EDGE('',*,*,#109,.F.);
#129=ORIENTED_EDGE('',*,*,#110,.T.);
#130=ORIENTED_EDGE('',*,*,#111,.F.);
#131=ORIENTED_EDGE('',*,*,#112,.F.);
#132=ORIENTED_EDGE('',*,*,#108,.T.);
#133=ORIENTED_EDGE('',*,*,#113,.T.);
#134=ORIENTED_EDGE('',*,*,#112,.T.);
#135=ORIENTED_EDGE('',*,*,#114,.T.);
#136=ORIENTED_EDGE('',*,*,#115,.F.);
#137=ORIENTED_EDGE('',*,*,#116,.T.);
#138=ORIENTED_EDGE('',*,*,#109,.T.);
#139=ORIENTED_EDGE('',*,*,#114,.F.);
#140=ORIENTED_EDGE('',*,*,#111,.T.);
#141=ORIENTED_EDGE('',*,*,#117,.T.);
#142=ORIENTED_EDGE('',*,*,#105,.T.);
#143=ORIENTED_EDGE('',*,*,#113,.F.);
#144=ORIENTED_EDGE('',*,*,#107,.T.);
#145=ORIENTED_EDGE('',*,*,#118,.T.);
#146=ORIENTED_EDGE('',*,*,#115,.T.);
#147=ORIENTED_EDGE('',*,*,#106,.T.);
#148=ORIENTED_EDGE('',*,*,#117,.F.);
#149=ORIENTED_EDGE('',*,*,#110,.F.);
#150=ORIENTED_EDGE('',*,*,#118,.F.);
#151=ORIENTED_EDGE('',*,*,#119,.F.);
#152=ORIENTED_EDGE('',*,*,#120,.F.);
#153=ORIENTED_EDGE('',*,*,#119,.T.);
#154=ORIENTED_EDGE('',*,*,#121,.F.);
#155=ORIENTED_EDGE('',*,*,#120,.T.);
#156=ORIENTED_EDGE('',*,*,#104,.T.);
#157=ORIENTED_EDGE('',*,*,#121,.T.);
#158=ORIENTED_EDGE('',*,*,#103,.T.);
#159=ORIENTED_EDGE('',*,*,#116,.F.);
#160=CONICAL_SURFACE('',#178,17.4707560564134,75.);
#161=CONICAL_SURFACE('',#190,15.5,4.28915332881902);
#162=CONICAL_SURFACE('',#196,9.125,3.71899397315804);
#163=ADVANCED_FACE('',(#44,#37),#160,.T.);
#164=ADVANCED_FACE('',(#45),#29,.F.);
#165=ADVANCED_FACE('',(#46),#30,.F.);
#166=ADVANCED_FACE('',(#47),#31,.T.);
#167=ADVANCED_FACE('',(#48),#32,.T.);
#168=ADVANCED_FACE('',(#49,#38),#33,.T.);
#169=ADVANCED_FACE('',(#50,#39),#161,.T.);
#170=ADVANCED_FACE('',(#51),#34,.T.);
#171=ADVANCED_FACE('',(#52),#35,.T.);
#172=ADVANCED_FACE('',(#53,#40),#162,.F.);
#173=ADVANCED_FACE('',(#54,#41),#15,.F.);
#174=ADVANCED_FACE('',(#55,#42),#36,.T.);
#175=ADVANCED_FACE('',(#56,#43),#16,.T.);
#176=CLOSED_SHELL('',(#163,#164,#165,#166,#167,#168,#169,#170,#171,#172,
#173,#174,#175));
#177=AXIS2_PLACEMENT_3D('placement',#256,#202,#203);
#178=AXIS2_PLACEMENT_3D('',#257,#204,#205);
#179=AXIS2_PLACEMENT_3D('',#259,#206,#207);
#180=AXIS2_PLACEMENT_3D('',#261,#208,#209);
#181=AXIS2_PLACEMENT_3D('',#262,#210,#211);
#182=AXIS2_PLACEMENT_3D('',#275,#214,#215);
#183=AXIS2_PLACEMENT_3D('',#288,#218,#219);
#184=AXIS2_PLACEMENT_3D('',#289,#220,#221);
#185=AXIS2_PLACEMENT_3D('',#290,#222,#223);
#186=AXIS2_PLACEMENT_3D('',#291,#224,#225);
#187=AXIS2_PLACEMENT_3D('',#292,#226,#227);
#188=AXIS2_PLACEMENT_3D('',#294,#228,#229);
#189=AXIS2_PLACEMENT_3D('',#296,#230,#231);
#190=AXIS2_PLACEMENT_3D('',#297,#232,#233);
#191=AXIS2_PLACEMENT_3D('',#298,#234,#235);
#192=AXIS2_PLACEMENT_3D('',#299,#236,#237);
#193=AXIS2_PLACEMENT_3D('',#300,#238,#239);
#194=AXIS2_PLACEMENT_3D('',#301,#240,#241);
#195=AXIS2_PLACEMENT_3D('',#303,#242,#243);
#196=AXIS2_PLACEMENT_3D('',#304,#244,#245);
#197=AXIS2_PLACEMENT_3D('',#306,#246,#247);
#198=AXIS2_PLACEMENT_3D('',#307,#248,#249);
#199=AXIS2_PLACEMENT_3D('',#309,#250,#251);
#200=AXIS2_PLACEMENT_3D('',#310,#252,#253);
#201=AXIS2_PLACEMENT_3D('',#311,#254,#255);
#202=DIRECTION('axis',(0.,0.,1.));
#203=DIRECTION('refdir',(1.,0.,0.));
#204=DIRECTION('center_axis',(0.,1.,0.));
#205=DIRECTION('ref_axis',(0.,0.,-1.));
#206=DIRECTION('center_axis',(0.,1.,0.));
#207=DIRECTION('ref_axis',(0.,0.,1.));
#208=DIRECTION('center_axis',(0.,-1.,0.));
#209=DIRECTION('ref_axis',(0.,0.,-1.));
#210=DIRECTION('center_axis',(1.,6.93889390390722E-17,0.));
#211=DIRECTION('ref_axis',(-8.88178419700125E-17,1.,0.));
#212=DIRECTION('',(0.,0.,-1.));
#213=DIRECTION('',(0.,0.,1.));
#214=DIRECTION('center_axis',(-1.,-6.93889390390722E-17,0.));
#215=DIRECTION('ref_axis',(8.88178419700125E-17,-1.,0.));
#216=DIRECTION('',(0.,0.,-1.));
#217=DIRECTION('',(0.,0.,-1.));
#218=DIRECTION('center_axis',(0.,1.,0.));
#219=DIRECTION('ref_axis',(0.,0.,1.));
#220=DIRECTION('center_axis',(0.,1.,0.));
#221=DIRECTION('ref_axis',(1.,0.,0.));
#222=DIRECTION('center_axis',(0.,1.,0.));
#223=DIRECTION('ref_axis',(0.,0.,1.));
#224=DIRECTION('center_axis',(0.,1.,0.));
#225=DIRECTION('ref_axis',(1.,0.,0.));
#226=DIRECTION('center_axis',(0.,-1.,0.));
#227=DIRECTION('ref_axis',(0.,0.,-1.));
#228=DIRECTION('center_axis',(0.,1.,0.));
#229=DIRECTION('ref_axis',(1.,0.,0.));
#230=DIRECTION('center_axis',(0.,1.,0.));
#231=DIRECTION('ref_axis',(1.,0.,0.));
#232=DIRECTION('center_axis',(0.,-1.,0.));
#233=DIRECTION('ref_axis',(0.,0.,1.));
#234=DIRECTION('center_axis',(0.,-1.,0.));
#235=DIRECTION('ref_axis',(0.,0.,1.));
#236=DIRECTION('center_axis',(0.,-1.,0.));
#237=DIRECTION('ref_axis',(0.,0.,1.));
#238=DIRECTION('center_axis',(0.,1.,0.));
#239=DIRECTION('ref_axis',(0.,0.,1.));
#240=DIRECTION('center_axis',(0.,-1.,0.));
#241=DIRECTION('ref_axis',(0.,0.,-1.));
#242=DIRECTION('center_axis',(0.,1.,0.));
#243=DIRECTION('ref_axis',(1.,0.,0.));
#244=DIRECTION('center_axis',(0.,-1.,0.));
#245=DIRECTION('ref_axis',(0.,0.,1.));
#246=DIRECTION('center_axis',(0.,1.,0.));
#247=DIRECTION('ref_axis',(1.,0.,0.));
#248=DIRECTION('center_axis',(0.,1.,0.));
#249=DIRECTION('ref_axis',(0.,0.,1.));
#250=DIRECTION('center_axis',(0.,1.,0.));
#251=DIRECTION('ref_axis',(1.,0.,0.));
#252=DIRECTION('center_axis',(0.,-1.,0.));
#253=DIRECTION('ref_axis',(0.,0.,-1.));
#254=DIRECTION('center_axis',(0.,1.,0.));
#255=DIRECTION('ref_axis',(0.,0.,1.));
#256=CARTESIAN_POINT('',(0.,0.,0.));
#257=CARTESIAN_POINT('Origin',(0.,1.01037104017074,0.));
#258=CARTESIAN_POINT('',(-2.03903692058034E-15,0.790450117671812,-16.65));
#259=CARTESIAN_POINT('Origin',(0.,0.790450117671812,0.));
#260=CARTESIAN_POINT('',(0.,-1.11022302462516E-15,-13.7));
#261=CARTESIAN_POINT('Origin',(0.,-1.38777878078145E-15,0.));
#262=CARTESIAN_POINT('Origin',(2.00000000000001,71.,0.));
#263=CARTESIAN_POINT('',(2.00000000000001,71.,-13.4015857270698));
#264=CARTESIAN_POINT('',(2.00000000000001,75.,-13.0981868974297));
#265=CARTESIAN_POINT('Ctrl Pts',(2.00000000000001,71.,-13.4015857270698));
#266=CARTESIAN_POINT('Ctrl Pts',(2.00000000000001,73.0228981924642,-13.2481881866629));
#267=CARTESIAN_POINT('Ctrl Pts',(2.00000000000001,75.,-13.0981868974297));
#268=CARTESIAN_POINT('',(2.00000000000001,71.,13.4015857270698));
#269=CARTESIAN_POINT('',(2.00000000000001,71.,0.));
#270=CARTESIAN_POINT('',(2.00000000000001,75.,13.0981868974297));
#271=CARTESIAN_POINT('Ctrl Pts',(2.00000000000001,75.,13.0981868974297));
#272=CARTESIAN_POINT('Ctrl Pts',(2.00000000000001,73.0228981924642,13.2481881866629));
#273=CARTESIAN_POINT('Ctrl Pts',(2.00000000000001,71.,13.4015857270698));
#274=CARTESIAN_POINT('',(2.00000000000001,75.,1.));
#275=CARTESIAN_POINT('Origin',(-2.00000000000001,75.,0.));
#276=CARTESIAN_POINT('',(-2.00000000000001,71.,13.4015857270698));
#277=CARTESIAN_POINT('',(-2.00000000000001,75.,13.0981868974297));
#278=CARTESIAN_POINT('Ctrl Pts',(-2.00000000000001,71.,13.4015857270698));
#279=CARTESIAN_POINT('Ctrl Pts',(-2.00000000000001,73.0228981958977,13.2481881864025));
#280=CARTESIAN_POINT('Ctrl Pts',(-2.00000000000001,75.,13.0981868974297));
#281=CARTESIAN_POINT('',(-2.00000000000001,71.,-13.4015857270698));
#282=CARTESIAN_POINT('',(-2.00000000000001,71.,0.));
#283=CARTESIAN_POINT('',(-2.00000000000001,75.,-13.0981868974297));
#284=CARTESIAN_POINT('Ctrl Pts',(-2.00000000000001,75.,-13.0981868974297));
#285=CARTESIAN_POINT('Ctrl Pts',(-2.00000000000001,73.0228981958977,-13.2481881864025));
#286=CARTESIAN_POINT('Ctrl Pts',(-2.00000000000001,71.,-13.4015857270698));
#287=CARTESIAN_POINT('',(-2.00000000000001,75.,1.));
#288=CARTESIAN_POINT('Origin',(0.,75.,2.00000000000001));
#289=CARTESIAN_POINT('Origin',(0.,75.,0.));
#290=CARTESIAN_POINT('Origin',(0.,75.,2.00000000000001));
#291=CARTESIAN_POINT('Origin',(0.,75.,0.));
#292=CARTESIAN_POINT('Origin',(0.,15.,17.75));
#293=CARTESIAN_POINT('',(0.,15.,17.75));
#294=CARTESIAN_POINT('Origin',(0.,15.,0.));
#295=CARTESIAN_POINT('',(0.,15.,16.65));
#296=CARTESIAN_POINT('Origin',(0.,15.,0.));
#297=CARTESIAN_POINT('Origin',(0.,45.,0.));
#298=CARTESIAN_POINT('Origin',(0.,71.,0.));
#299=CARTESIAN_POINT('Origin',(0.,71.,0.));
#300=CARTESIAN_POINT('Origin',(0.,71.,0.));
#301=CARTESIAN_POINT('Origin',(0.,65.,7.5));
#302=CARTESIAN_POINT('',(0.,65.,7.5));
#303=CARTESIAN_POINT('Origin',(0.,65.,0.));
#304=CARTESIAN_POINT('Origin',(0.,40.,0.));
#305=CARTESIAN_POINT('',(0.,15.,10.75));
#306=CARTESIAN_POINT('Origin',(0.,15.,0.));
#307=CARTESIAN_POINT('Origin',(0.,7.5,0.));
#308=CARTESIAN_POINT('',(0.,0.,10.75));
#309=CARTESIAN_POINT('Origin',(0.,0.,0.));
#310=CARTESIAN_POINT('Origin',(0.,-1.33278248461851E-15,16.65));
#311=CARTESIAN_POINT('Origin',(0.,7.5,0.));
#312=UNCERTAINTY_MEASURE_WITH_UNIT(LENGTH_MEASURE(0.01),#316,
'DISTANCE_ACCURACY_VALUE',
'Maximum model space distance between geometric entities at asserted c
onnectivities');
#313=UNCERTAINTY_MEASURE_WITH_UNIT(LENGTH_MEASURE(1.E-6),#316,
'DISTANCE_ACCURACY_VALUE',
'Maximum model space distance between geometric entities at asserted c
onnectivities');
#314=(
GEOMETRIC_REPRESENTATION_CONTEXT(3)
GLOBAL_UNCERTAINTY_ASSIGNED_CONTEXT((#312))
GLOBAL_UNIT_ASSIGNED_CONTEXT((#316,#319,#317))
REPRESENTATION_CONTEXT('','3D')
);
#315=(
GEOMETRIC_REPRESENTATION_CONTEXT(3)
GLOBAL_UNCERTAINTY_ASSIGNED_CONTEXT((#313))
GLOBAL_UNIT_ASSIGNED_CONTEXT((#316,#319,#317))
REPRESENTATION_CONTEXT('','3D')
);
#316=(
LENGTH_UNIT()
NAMED_UNIT(*)
SI_UNIT(.MILLI.,.METRE.)
);
#317=(
NAMED_UNIT(*)
SI_UNIT($,.STERADIAN.)
SOLID_ANGLE_UNIT()
);
#318=DIMENSIONAL_EXPONENTS(0.,0.,0.,0.,0.,0.,0.);
#319=(
CONVERSION_BASED_UNIT('degree',#321)
NAMED_UNIT(#318)
PLANE_ANGLE_UNIT()
);
#320=(
NAMED_UNIT(*)
PLANE_ANGLE_UNIT()
SI_UNIT($,.RADIAN.)
);
#321=PLANE_ANGLE_MEASURE_WITH_UNIT(PLANE_ANGLE_MEASURE(0.01745329252),#320);
#322=SHAPE_DEFINITION_REPRESENTATION(#323,#324);
#323=PRODUCT_DEFINITION_SHAPE('',$,#326);
#324=SHAPE_REPRESENTATION('',(#177),#314);
#325=PRODUCT_DEFINITION_CONTEXT('part definition',#330,'design');
#326=PRODUCT_DEFINITION('sd_10','sd_10',#327,#325);
#327=PRODUCT_DEFINITION_FORMATION('',$,#332);
#328=PRODUCT_RELATED_PRODUCT_CATEGORY('sd_10','sd_10',(#332));
#329=APPLICATION_PROTOCOL_DEFINITION('international standard',
'automotive_design',2009,#330);
#330=APPLICATION_CONTEXT(
'Core Data for Automotive Mechanical Design Process');
#331=PRODUCT_CONTEXT('part definition',#330,'mechanical');
#332=PRODUCT('sd_10','sd_10',$,(#331));
#333=PRESENTATION_STYLE_ASSIGNMENT((#334));
#334=SURFACE_STYLE_USAGE(.BOTH.,#335);
#335=SURFACE_SIDE_STYLE($,(#336));
#336=SURFACE_STYLE_FILL_AREA(#337);
#337=FILL_AREA_STYLE($,(#338));
#338=FILL_AREA_STYLE_COLOUR($,#339);
#339=COLOUR_RGB('',0.749019607843137,0.749019607843137,0.749019607843137);
ENDSEC;
END-ISO-10303-21;
