ISO-10303-21;
HEADER;
/* Generated by software containing ST-Developer
 * from STEP Tools, Inc. (www.steptools.com) 
 */

FILE_DESCRIPTION(
/* description */ (''),
/* implementation_level */ '2;1');

FILE_NAME(
/* name */ 
'C:\\Users\\enginyeria\\Desktop\\stp ventosas roscas\\vsa31m10nit.stp',

/* time_stamp */ '2020-10-06T15:19:48+02:00',
/* author */ ('enginyeria'),
/* organization */ (''),
/* preprocessor_version */ 'ST-DEVELOPER v17.2',
/* originating_system */ 'Autodesk Inventor 2019',
/* authorisation */ '');

FILE_SCHEMA (('CONFIG_CONTROL_DESIGN'));
ENDSEC;

DATA;
#10=MECHANICAL_DESIGN_GEOMETRIC_PRESENTATION_REPRESENTATION('',(#231,#232,
#233,#234,#235,#236,#237,#238,#239,#240,#241,#242,#243,#244,#245),#487);
#11=SHAPE_REPRESENTATION_RELATIONSHIP('SRR','None',#494,#12);
#12=ADVANCED_BREP_SHAPE_REPRESENTATION('',(#13),#486);
#13=MANIFOLD_SOLID_BREP('S\X\F3lido1',#260);
#14=TOROIDAL_SURFACE('',#306,7.5,1.);
#15=FACE_BOUND('',#44,.T.);
#16=FACE_BOUND('',#51,.T.);
#17=FACE_BOUND('',#54,.T.);
#18=PLANE('',#287);
#19=PLANE('',#290);
#20=PLANE('',#296);
#21=PLANE('',#303);
#22=PLANE('',#310);
#23=CYLINDRICAL_SURFACE('',#284,1.5);
#24=CYLINDRICAL_SURFACE('',#291,15.5);
#25=CYLINDRICAL_SURFACE('',#300,5.);
#26=CYLINDRICAL_SURFACE('',#316,11.);
#27=FACE_OUTER_BOUND('',#41,.T.);
#28=FACE_OUTER_BOUND('',#42,.T.);
#29=FACE_OUTER_BOUND('',#43,.T.);
#30=FACE_OUTER_BOUND('',#45,.T.);
#31=FACE_OUTER_BOUND('',#46,.T.);
#32=FACE_OUTER_BOUND('',#47,.T.);
#33=FACE_OUTER_BOUND('',#48,.T.);
#34=FACE_OUTER_BOUND('',#49,.T.);
#35=FACE_OUTER_BOUND('',#50,.T.);
#36=FACE_OUTER_BOUND('',#52,.T.);
#37=FACE_OUTER_BOUND('',#53,.T.);
#38=FACE_OUTER_BOUND('',#55,.T.);
#39=FACE_OUTER_BOUND('',#56,.T.);
#40=FACE_OUTER_BOUND('',#57,.T.);
#41=EDGE_LOOP('',(#159,#160,#161,#162,#163));
#42=EDGE_LOOP('',(#164,#165,#166,#167,#168,#169));
#43=EDGE_LOOP('',(#170,#171));
#44=EDGE_LOOP('',(#172));
#45=EDGE_LOOP('',(#173,#174));
#46=EDGE_LOOP('',(#175,#176,#177,#178,#179,#180));
#47=EDGE_LOOP('',(#181,#182));
#48=EDGE_LOOP('',(#183,#184,#185,#186,#187,#188));
#49=EDGE_LOOP('',(#189,#190,#191,#192,#193,#194));
#50=EDGE_LOOP('',(#195,#196));
#51=EDGE_LOOP('',(#197,#198));
#52=EDGE_LOOP('',(#199,#200,#201,#202,#203,#204));
#53=EDGE_LOOP('',(#205,#206));
#54=EDGE_LOOP('',(#207,#208));
#55=EDGE_LOOP('',(#209,#210,#211,#212,#213,#214));
#56=EDGE_LOOP('',(#215,#216,#217,#218,#219,#220));
#57=EDGE_LOOP('',(#221,#222,#223,#224,#225,#226));
#58=LINE('',#416,#66);
#59=LINE('',#421,#67);
#60=LINE('',#437,#68);
#61=LINE('',#447,#69);
#62=LINE('',#453,#70);
#63=LINE('',#475,#71);
#64=LINE('',#481,#72);
#65=LINE('',#483,#73);
#66=VECTOR('',#326,1.6);
#67=VECTOR('',#333,1.5);
#68=VECTOR('',#352,15.5);
#69=VECTOR('',#365,4.5);
#70=VECTOR('',#372,5.);
#71=VECTOR('',#399,10.5);
#72=VECTOR('',#406,11.);
#73=VECTOR('',#409,13.25);
#74=CIRCLE('',#281,1.5);
#75=CIRCLE('',#282,1.7);
#76=CIRCLE('',#283,1.5);
#77=CIRCLE('',#285,1.5);
#78=CIRCLE('',#286,1.5);
#79=CIRCLE('',#288,4.);
#80=CIRCLE('',#289,4.);
#81=CIRCLE('',#292,15.5);
#82=CIRCLE('',#293,15.5);
#83=CIRCLE('',#294,15.5);
#84=CIRCLE('',#295,15.5);
#85=CIRCLE('',#298,5.);
#86=CIRCLE('',#299,5.);
#87=CIRCLE('',#301,5.);
#88=CIRCLE('',#302,5.);
#89=CIRCLE('',#304,6.5);
#90=CIRCLE('',#305,6.5);
#91=CIRCLE('',#307,8.5);
#92=CIRCLE('',#308,8.5);
#93=CIRCLE('',#309,1.);
#94=CIRCLE('',#311,10.);
#95=CIRCLE('',#312,10.);
#96=CIRCLE('',#314,11.);
#97=CIRCLE('',#315,11.);
#98=CIRCLE('',#317,11.);
#99=CIRCLE('',#318,11.);
#100=VERTEX_POINT('',#412);
#101=VERTEX_POINT('',#413);
#102=VERTEX_POINT('',#415);
#103=VERTEX_POINT('',#420);
#104=VERTEX_POINT('',#422);
#105=VERTEX_POINT('',#426);
#106=VERTEX_POINT('',#427);
#107=VERTEX_POINT('',#432);
#108=VERTEX_POINT('',#433);
#109=VERTEX_POINT('',#436);
#110=VERTEX_POINT('',#438);
#111=VERTEX_POINT('',#443);
#112=VERTEX_POINT('',#444);
#113=VERTEX_POINT('',#449);
#114=VERTEX_POINT('',#450);
#115=VERTEX_POINT('',#455);
#116=VERTEX_POINT('',#456);
#117=VERTEX_POINT('',#460);
#118=VERTEX_POINT('',#461);
#119=VERTEX_POINT('',#466);
#120=VERTEX_POINT('',#467);
#121=VERTEX_POINT('',#471);
#122=VERTEX_POINT('',#472);
#123=VERTEX_POINT('',#477);
#124=VERTEX_POINT('',#478);
#125=EDGE_CURVE('',#100,#101,#74,.T.);
#126=EDGE_CURVE('',#101,#102,#58,.T.);
#127=EDGE_CURVE('',#102,#102,#75,.T.);
#128=EDGE_CURVE('',#101,#100,#76,.T.);
#129=EDGE_CURVE('',#100,#103,#59,.T.);
#130=EDGE_CURVE('',#104,#103,#77,.T.);
#131=EDGE_CURVE('',#103,#104,#78,.T.);
#132=EDGE_CURVE('',#105,#106,#79,.T.);
#133=EDGE_CURVE('',#106,#105,#80,.T.);
#134=EDGE_CURVE('',#107,#108,#81,.T.);
#135=EDGE_CURVE('',#108,#107,#82,.T.);
#136=EDGE_CURVE('',#108,#109,#60,.T.);
#137=EDGE_CURVE('',#109,#110,#83,.T.);
#138=EDGE_CURVE('',#110,#109,#84,.T.);
#139=EDGE_CURVE('',#111,#112,#85,.T.);
#140=EDGE_CURVE('',#112,#111,#86,.T.);
#141=EDGE_CURVE('',#112,#106,#61,.T.);
#142=EDGE_CURVE('',#113,#114,#87,.T.);
#143=EDGE_CURVE('',#114,#113,#88,.T.);
#144=EDGE_CURVE('',#114,#112,#62,.T.);
#145=EDGE_CURVE('',#115,#116,#89,.T.);
#146=EDGE_CURVE('',#116,#115,#90,.T.);
#147=EDGE_CURVE('',#117,#118,#91,.T.);
#148=EDGE_CURVE('',#118,#117,#92,.T.);
#149=EDGE_CURVE('',#118,#116,#93,.T.);
#150=EDGE_CURVE('',#119,#120,#94,.T.);
#151=EDGE_CURVE('',#120,#119,#95,.T.);
#152=EDGE_CURVE('',#121,#122,#96,.T.);
#153=EDGE_CURVE('',#122,#121,#97,.T.);
#154=EDGE_CURVE('',#122,#120,#63,.T.);
#155=EDGE_CURVE('',#123,#124,#98,.T.);
#156=EDGE_CURVE('',#124,#123,#99,.T.);
#157=EDGE_CURVE('',#124,#122,#64,.T.);
#158=EDGE_CURVE('',#109,#124,#65,.T.);
#159=ORIENTED_EDGE('',*,*,#125,.T.);
#160=ORIENTED_EDGE('',*,*,#126,.T.);
#161=ORIENTED_EDGE('',*,*,#127,.T.);
#162=ORIENTED_EDGE('',*,*,#126,.F.);
#163=ORIENTED_EDGE('',*,*,#128,.T.);
#164=ORIENTED_EDGE('',*,*,#125,.F.);
#165=ORIENTED_EDGE('',*,*,#129,.T.);
#166=ORIENTED_EDGE('',*,*,#130,.F.);
#167=ORIENTED_EDGE('',*,*,#131,.F.);
#168=ORIENTED_EDGE('',*,*,#129,.F.);
#169=ORIENTED_EDGE('',*,*,#128,.F.);
#170=ORIENTED_EDGE('',*,*,#132,.F.);
#171=ORIENTED_EDGE('',*,*,#133,.F.);
#172=ORIENTED_EDGE('',*,*,#127,.F.);
#173=ORIENTED_EDGE('',*,*,#130,.T.);
#174=ORIENTED_EDGE('',*,*,#131,.T.);
#175=ORIENTED_EDGE('',*,*,#134,.F.);
#176=ORIENTED_EDGE('',*,*,#135,.F.);
#177=ORIENTED_EDGE('',*,*,#136,.T.);
#178=ORIENTED_EDGE('',*,*,#137,.T.);
#179=ORIENTED_EDGE('',*,*,#138,.T.);
#180=ORIENTED_EDGE('',*,*,#136,.F.);
#181=ORIENTED_EDGE('',*,*,#134,.T.);
#182=ORIENTED_EDGE('',*,*,#135,.T.);
#183=ORIENTED_EDGE('',*,*,#139,.F.);
#184=ORIENTED_EDGE('',*,*,#140,.F.);
#185=ORIENTED_EDGE('',*,*,#141,.T.);
#186=ORIENTED_EDGE('',*,*,#133,.T.);
#187=ORIENTED_EDGE('',*,*,#132,.T.);
#188=ORIENTED_EDGE('',*,*,#141,.F.);
#189=ORIENTED_EDGE('',*,*,#142,.F.);
#190=ORIENTED_EDGE('',*,*,#143,.F.);
#191=ORIENTED_EDGE('',*,*,#144,.T.);
#192=ORIENTED_EDGE('',*,*,#140,.T.);
#193=ORIENTED_EDGE('',*,*,#139,.T.);
#194=ORIENTED_EDGE('',*,*,#144,.F.);
#195=ORIENTED_EDGE('',*,*,#145,.F.);
#196=ORIENTED_EDGE('',*,*,#146,.F.);
#197=ORIENTED_EDGE('',*,*,#142,.T.);
#198=ORIENTED_EDGE('',*,*,#143,.T.);
#199=ORIENTED_EDGE('',*,*,#147,.F.);
#200=ORIENTED_EDGE('',*,*,#148,.F.);
#201=ORIENTED_EDGE('',*,*,#149,.T.);
#202=ORIENTED_EDGE('',*,*,#146,.T.);
#203=ORIENTED_EDGE('',*,*,#145,.T.);
#204=ORIENTED_EDGE('',*,*,#149,.F.);
#205=ORIENTED_EDGE('',*,*,#150,.F.);
#206=ORIENTED_EDGE('',*,*,#151,.F.);
#207=ORIENTED_EDGE('',*,*,#147,.T.);
#208=ORIENTED_EDGE('',*,*,#148,.T.);
#209=ORIENTED_EDGE('',*,*,#152,.F.);
#210=ORIENTED_EDGE('',*,*,#153,.F.);
#211=ORIENTED_EDGE('',*,*,#154,.T.);
#212=ORIENTED_EDGE('',*,*,#151,.T.);
#213=ORIENTED_EDGE('',*,*,#150,.T.);
#214=ORIENTED_EDGE('',*,*,#154,.F.);
#215=ORIENTED_EDGE('',*,*,#155,.F.);
#216=ORIENTED_EDGE('',*,*,#156,.F.);
#217=ORIENTED_EDGE('',*,*,#157,.T.);
#218=ORIENTED_EDGE('',*,*,#153,.T.);
#219=ORIENTED_EDGE('',*,*,#152,.T.);
#220=ORIENTED_EDGE('',*,*,#157,.F.);
#221=ORIENTED_EDGE('',*,*,#138,.F.);
#222=ORIENTED_EDGE('',*,*,#137,.F.);
#223=ORIENTED_EDGE('',*,*,#158,.T.);
#224=ORIENTED_EDGE('',*,*,#156,.T.);
#225=ORIENTED_EDGE('',*,*,#155,.T.);
#226=ORIENTED_EDGE('',*,*,#158,.F.);
#227=CONICAL_SURFACE('',#280,1.6,0.785398163397449);
#228=CONICAL_SURFACE('',#297,4.5,0.785398163397449);
#229=CONICAL_SURFACE('',#313,10.5,0.785398163397449);
#230=CONICAL_SURFACE('',#319,13.25,0.540419500270584);
#231=STYLED_ITEM('',(#505),#246);
#232=STYLED_ITEM('',(#505),#247);
#233=STYLED_ITEM('',(#505),#248);
#234=STYLED_ITEM('',(#503),#249);
#235=STYLED_ITEM('',(#503),#250);
#236=STYLED_ITEM('',(#503),#251);
#237=STYLED_ITEM('',(#505),#252);
#238=STYLED_ITEM('',(#505),#253);
#239=STYLED_ITEM('',(#503),#254);
#240=STYLED_ITEM('',(#503),#255);
#241=STYLED_ITEM('',(#503),#256);
#242=STYLED_ITEM('',(#503),#257);
#243=STYLED_ITEM('',(#503),#258);
#244=STYLED_ITEM('',(#503),#259);
#245=STYLED_ITEM('',(#504),#13);
#246=ADVANCED_FACE('',(#27),#227,.F.);
#247=ADVANCED_FACE('',(#28),#23,.F.);
#248=ADVANCED_FACE('',(#29,#15),#18,.T.);
#249=ADVANCED_FACE('',(#30),#19,.F.);
#250=ADVANCED_FACE('',(#31),#24,.T.);
#251=ADVANCED_FACE('',(#32),#20,.T.);
#252=ADVANCED_FACE('',(#33),#228,.T.);
#253=ADVANCED_FACE('',(#34),#25,.T.);
#254=ADVANCED_FACE('',(#35,#16),#21,.T.);
#255=ADVANCED_FACE('',(#36),#14,.T.);
#256=ADVANCED_FACE('',(#37,#17),#22,.T.);
#257=ADVANCED_FACE('',(#38),#229,.T.);
#258=ADVANCED_FACE('',(#39),#26,.T.);
#259=ADVANCED_FACE('',(#40),#230,.T.);
#260=CLOSED_SHELL('',(#246,#247,#248,#249,#250,#251,#252,#253,#254,#255,
#256,#257,#258,#259));
#261=DERIVED_UNIT_ELEMENT(#263,1.);
#262=DERIVED_UNIT_ELEMENT(#489,3.);
#263=(
MASS_UNIT()
NAMED_UNIT(*)
SI_UNIT($,.GRAM.)
);
#264=DERIVED_UNIT((#261,#262));
#265=MEASURE_REPRESENTATION_ITEM('density measure',
POSITIVE_RATIO_MEASURE(1.),#264);
#266=PROPERTY_DEFINITION_REPRESENTATION(#271,#268);
#267=PROPERTY_DEFINITION_REPRESENTATION(#272,#269);
#268=REPRESENTATION('material name',(#270),#486);
#269=REPRESENTATION('density',(#265),#486);
#270=DESCRIPTIVE_REPRESENTATION_ITEM('Gen\X\E9rico','Gen\X\E9rico');
#271=PROPERTY_DEFINITION('material property','material name',#496);
#272=PROPERTY_DEFINITION('material property','density of part',#496);
#273=DATE_TIME_ROLE('creation_date');
#274=CC_DESIGN_DATE_AND_TIME_ASSIGNMENT(#275,#273,(#496));
#275=DATE_AND_TIME(#276,#277);
#276=CALENDAR_DATE(2020,6,10);
#277=LOCAL_TIME(15,18,19.,#278);
#278=COORDINATED_UNIVERSAL_TIME_OFFSET(0,0,.BEHIND.);
#279=AXIS2_PLACEMENT_3D('placement',#410,#320,#321);
#280=AXIS2_PLACEMENT_3D('',#411,#322,#323);
#281=AXIS2_PLACEMENT_3D('',#414,#324,#325);
#282=AXIS2_PLACEMENT_3D('',#417,#327,#328);
#283=AXIS2_PLACEMENT_3D('',#418,#329,#330);
#284=AXIS2_PLACEMENT_3D('',#419,#331,#332);
#285=AXIS2_PLACEMENT_3D('',#423,#334,#335);
#286=AXIS2_PLACEMENT_3D('',#424,#336,#337);
#287=AXIS2_PLACEMENT_3D('',#425,#338,#339);
#288=AXIS2_PLACEMENT_3D('',#428,#340,#341);
#289=AXIS2_PLACEMENT_3D('',#429,#342,#343);
#290=AXIS2_PLACEMENT_3D('',#430,#344,#345);
#291=AXIS2_PLACEMENT_3D('',#431,#346,#347);
#292=AXIS2_PLACEMENT_3D('',#434,#348,#349);
#293=AXIS2_PLACEMENT_3D('',#435,#350,#351);
#294=AXIS2_PLACEMENT_3D('',#439,#353,#354);
#295=AXIS2_PLACEMENT_3D('',#440,#355,#356);
#296=AXIS2_PLACEMENT_3D('',#441,#357,#358);
#297=AXIS2_PLACEMENT_3D('',#442,#359,#360);
#298=AXIS2_PLACEMENT_3D('',#445,#361,#362);
#299=AXIS2_PLACEMENT_3D('',#446,#363,#364);
#300=AXIS2_PLACEMENT_3D('',#448,#366,#367);
#301=AXIS2_PLACEMENT_3D('',#451,#368,#369);
#302=AXIS2_PLACEMENT_3D('',#452,#370,#371);
#303=AXIS2_PLACEMENT_3D('',#454,#373,#374);
#304=AXIS2_PLACEMENT_3D('',#457,#375,#376);
#305=AXIS2_PLACEMENT_3D('',#458,#377,#378);
#306=AXIS2_PLACEMENT_3D('',#459,#379,#380);
#307=AXIS2_PLACEMENT_3D('',#462,#381,#382);
#308=AXIS2_PLACEMENT_3D('',#463,#383,#384);
#309=AXIS2_PLACEMENT_3D('',#464,#385,#386);
#310=AXIS2_PLACEMENT_3D('',#465,#387,#388);
#311=AXIS2_PLACEMENT_3D('',#468,#389,#390);
#312=AXIS2_PLACEMENT_3D('',#469,#391,#392);
#313=AXIS2_PLACEMENT_3D('',#470,#393,#394);
#314=AXIS2_PLACEMENT_3D('',#473,#395,#396);
#315=AXIS2_PLACEMENT_3D('',#474,#397,#398);
#316=AXIS2_PLACEMENT_3D('',#476,#400,#401);
#317=AXIS2_PLACEMENT_3D('',#479,#402,#403);
#318=AXIS2_PLACEMENT_3D('',#480,#404,#405);
#319=AXIS2_PLACEMENT_3D('',#482,#407,#408);
#320=DIRECTION('axis',(0.,0.,1.));
#321=DIRECTION('refdir',(1.,0.,0.));
#322=DIRECTION('center_axis',(0.,0.999999682931835,0.000796326710733708));
#323=DIRECTION('ref_axis',(-1.,0.,0.));
#324=DIRECTION('center_axis',(0.,-0.999999682931835,-0.000796326710733708));
#325=DIRECTION('ref_axis',(-1.,0.,0.));
#326=DIRECTION('',(0.707106781186548,0.707106556985497,0.000563088017199696));
#327=DIRECTION('center_axis',(0.,0.999999682931835,0.000796326710733708));
#328=DIRECTION('ref_axis',(-1.,0.,0.));
#329=DIRECTION('center_axis',(0.,-0.999999682931835,-0.000796326710733708));
#330=DIRECTION('ref_axis',(-1.,0.,0.));
#331=DIRECTION('center_axis',(0.,-0.999999682931835,-0.000796326710733708));
#332=DIRECTION('ref_axis',(1.,0.,0.));
#333=DIRECTION('',(0.,-0.999999682931835,-0.000796326710733708));
#334=DIRECTION('center_axis',(0.,0.999999682931835,0.000796326710733708));
#335=DIRECTION('ref_axis',(1.,0.,0.));
#336=DIRECTION('center_axis',(0.,0.999999682931835,0.000796326710733708));
#337=DIRECTION('ref_axis',(1.,0.,0.));
#338=DIRECTION('center_axis',(0.,0.999999682931835,0.000796326710733708));
#339=DIRECTION('ref_axis',(0.,-0.000796326710733708,0.999999682931835));
#340=DIRECTION('center_axis',(0.,-0.999999682931835,-0.000796326710733708));
#341=DIRECTION('ref_axis',(-1.,0.,0.));
#342=DIRECTION('center_axis',(0.,-0.999999682931835,-0.000796326710733708));
#343=DIRECTION('ref_axis',(-1.,0.,0.));
#344=DIRECTION('center_axis',(0.,-0.999999682931835,-0.000796326710733708));
#345=DIRECTION('ref_axis',(0.,0.000796326710733708,-0.999999682931835));
#346=DIRECTION('center_axis',(0.,-0.999999682931835,-0.000796326710733708));
#347=DIRECTION('ref_axis',(-1.,0.,0.));
#348=DIRECTION('center_axis',(0.,-0.999999682931835,-0.000796326710733708));
#349=DIRECTION('ref_axis',(-1.,0.,0.));
#350=DIRECTION('center_axis',(0.,-0.999999682931835,-0.000796326710733708));
#351=DIRECTION('ref_axis',(-1.,0.,0.));
#352=DIRECTION('',(0.,0.999999682931835,0.000796326710733708));
#353=DIRECTION('center_axis',(0.,-0.999999682931835,-0.000796326710733708));
#354=DIRECTION('ref_axis',(-1.,0.,0.));
#355=DIRECTION('center_axis',(0.,-0.999999682931835,-0.000796326710733708));
#356=DIRECTION('ref_axis',(-1.,0.,0.));
#357=DIRECTION('center_axis',(0.,-0.999999682931835,-0.000796326710733708));
#358=DIRECTION('ref_axis',(0.,0.000796326710733708,-0.999999682931835));
#359=DIRECTION('center_axis',(0.,-0.999999682931835,-0.000796326710733708));
#360=DIRECTION('ref_axis',(-1.,0.,0.));
#361=DIRECTION('center_axis',(0.,-0.999999682931835,-0.000796326710733708));
#362=DIRECTION('ref_axis',(-1.,0.,0.));
#363=DIRECTION('center_axis',(0.,-0.999999682931835,-0.000796326710733708));
#364=DIRECTION('ref_axis',(-1.,0.,0.));
#365=DIRECTION('',(-0.707106781186548,0.707106556985497,0.000563088017199696));
#366=DIRECTION('center_axis',(0.,-0.999999682931835,-0.000796326710733708));
#367=DIRECTION('ref_axis',(-1.,0.,0.));
#368=DIRECTION('center_axis',(0.,-0.999999682931835,-0.000796326710733708));
#369=DIRECTION('ref_axis',(-1.,0.,0.));
#370=DIRECTION('center_axis',(0.,-0.999999682931835,-0.000796326710733708));
#371=DIRECTION('ref_axis',(-1.,0.,0.));
#372=DIRECTION('',(0.,0.999999682931835,0.000796326710733708));
#373=DIRECTION('center_axis',(0.,0.999999682931835,0.000796326710733708));
#374=DIRECTION('ref_axis',(0.,-0.000796326710733708,0.999999682931835));
#375=DIRECTION('center_axis',(0.,-0.999999682931835,-0.000796326710733708));
#376=DIRECTION('ref_axis',(-1.,0.,0.));
#377=DIRECTION('center_axis',(0.,-0.999999682931835,-0.000796326710733708));
#378=DIRECTION('ref_axis',(-1.,0.,0.));
#379=DIRECTION('center_axis',(0.,-0.999999682931835,-0.000796326710733708));
#380=DIRECTION('ref_axis',(0.,0.000796326710733845,-0.999999682931835));
#381=DIRECTION('center_axis',(0.,-0.999999682931835,-0.000796326710733708));
#382=DIRECTION('ref_axis',(-1.,0.,0.));
#383=DIRECTION('center_axis',(0.,-0.999999682931835,-0.000796326710733708));
#384=DIRECTION('ref_axis',(-1.,0.,0.));
#385=DIRECTION('center_axis',(-1.,9.75218957375575E-20,-1.22464641085084E-16));
#386=DIRECTION('ref_axis',(-1.22464679914735E-16,-0.000796326710733793,
0.999999682931835));
#387=DIRECTION('center_axis',(0.,0.999999682931835,0.000796326710733708));
#388=DIRECTION('ref_axis',(0.,-0.000796326710733708,0.999999682931835));
#389=DIRECTION('center_axis',(0.,-0.999999682931835,-0.000796326710733708));
#390=DIRECTION('ref_axis',(-1.,0.,0.));
#391=DIRECTION('center_axis',(0.,-0.999999682931835,-0.000796326710733708));
#392=DIRECTION('ref_axis',(-1.,0.,0.));
#393=DIRECTION('center_axis',(0.,-0.999999682931835,-0.000796326710733708));
#394=DIRECTION('ref_axis',(-1.,0.,0.));
#395=DIRECTION('center_axis',(0.,-0.999999682931835,-0.000796326710733708));
#396=DIRECTION('ref_axis',(-1.,0.,0.));
#397=DIRECTION('center_axis',(0.,-0.999999682931835,-0.000796326710733708));
#398=DIRECTION('ref_axis',(-1.,0.,0.));
#399=DIRECTION('',(-0.707106781186548,0.707106556985497,0.000563088017199696));
#400=DIRECTION('center_axis',(0.,-0.999999682931835,-0.000796326710733708));
#401=DIRECTION('ref_axis',(-1.,0.,0.));
#402=DIRECTION('center_axis',(0.,-0.999999682931835,-0.000796326710733708));
#403=DIRECTION('ref_axis',(-1.,0.,0.));
#404=DIRECTION('center_axis',(0.,-0.999999682931835,-0.000796326710733708));
#405=DIRECTION('ref_axis',(-1.,0.,0.));
#406=DIRECTION('',(0.,0.999999682931835,0.000796326710733708));
#407=DIRECTION('center_axis',(0.,-0.999999682931835,-0.000796326710733708));
#408=DIRECTION('ref_axis',(-1.,0.,0.));
#409=DIRECTION('',(-0.514495755427526,0.857492653828836,0.000682844521010031));
#410=CARTESIAN_POINT('',(0.,0.,0.));
#411=CARTESIAN_POINT('Origin',(0.,33.3999894099233,0.0265973121385059));
#412=CARTESIAN_POINT('',(-1.5,33.2999894416301,0.0265176794674323));
#413=CARTESIAN_POINT('',(1.49999999999999,33.2999894416301,0.0265176794674323));
#414=CARTESIAN_POINT('Origin',(0.,33.2999894416301,0.0265176794674325));
#415=CARTESIAN_POINT('',(1.7,33.4999893782165,0.026676944809579));
#416=CARTESIAN_POINT('',(1.6,33.3999894099233,0.0265973121385057));
#417=CARTESIAN_POINT('Origin',(0.,33.4999893782165,0.0266769448095792));
#418=CARTESIAN_POINT('Origin',(0.,33.2999894416301,0.0265176794674325));
#419=CARTESIAN_POINT('Origin',(0.,33.4999893782165,0.0266769448095792));
#420=CARTESIAN_POINT('',(-1.5,15.4999950854434,0.0123430640163722));
#421=CARTESIAN_POINT('',(-1.5,33.4999893782165,0.026676944809579));
#422=CARTESIAN_POINT('',(1.5,15.4999950854434,0.0123430640163765));
#423=CARTESIAN_POINT('Origin',(0.,15.4999950854434,0.0123430640163765));
#424=CARTESIAN_POINT('Origin',(0.,15.4999950854434,0.0123430640163765));
#425=CARTESIAN_POINT('Origin',(-2.,33.4999893782165,0.0266769448095792));
#426=CARTESIAN_POINT('',(-4.,33.4999893782165,0.0266769448095792));
#427=CARTESIAN_POINT('',(3.99999999999996,33.4999893782165,0.0266769448095798));
#428=CARTESIAN_POINT('Origin',(0.,33.4999893782165,0.0266769448095792));
#429=CARTESIAN_POINT('Origin',(0.,33.4999893782165,0.0266769448095792));
#430=CARTESIAN_POINT('Origin',(0.,15.4999950854434,0.0123430640163765));
#431=CARTESIAN_POINT('Origin',(0.,0.249999920732959,0.000199081677683427));
#432=CARTESIAN_POINT('',(-15.5,0.,0.));
#433=CARTESIAN_POINT('',(15.5,-6.93889390390723E-17,1.89799754688955E-15));
#434=CARTESIAN_POINT('Origin',(0.,0.,0.));
#435=CARTESIAN_POINT('Origin',(0.,0.,0.));
#436=CARTESIAN_POINT('',(15.5,0.499999841465917,0.000398163355368752));
#437=CARTESIAN_POINT('',(15.5,0.249999920732959,0.000199081677685325));
#438=CARTESIAN_POINT('',(-15.5,0.499999841465917,0.000398163355366854));
#439=CARTESIAN_POINT('Origin',(0.,0.499999841465917,0.000398163355366854));
#440=CARTESIAN_POINT('Origin',(0.,0.499999841465917,0.000398163355366854));
#441=CARTESIAN_POINT('Origin',(-7.75,0.,0.));
#442=CARTESIAN_POINT('Origin',(0.,32.9999895367505,0.0262787814542124));
#443=CARTESIAN_POINT('',(-5.,32.4999896952846,0.0258806180988455));
#444=CARTESIAN_POINT('',(4.99999999999999,32.4999896952846,0.0258806180988462));
#445=CARTESIAN_POINT('Origin',(0.,32.4999896952846,0.0258806180988455));
#446=CARTESIAN_POINT('Origin',(0.,32.4999896952846,0.0258806180988455));
#447=CARTESIAN_POINT('',(4.5,32.9999895367505,0.026278781454213));
#448=CARTESIAN_POINT('Origin',(0.,23.249992628165,0.0185145960245586));
#449=CARTESIAN_POINT('',(-5.,13.9999955610454,0.0111485739502717));
#450=CARTESIAN_POINT('',(5.,13.9999955610454,0.0111485739502723));
#451=CARTESIAN_POINT('Origin',(0.,13.9999955610454,0.0111485739502717));
#452=CARTESIAN_POINT('Origin',(0.,13.9999955610454,0.0111485739502717));
#453=CARTESIAN_POINT('',(5.,23.249992628165,0.0185145960245592));
#454=CARTESIAN_POINT('Origin',(-5.75,13.9999955610453,0.0111485739502716));
#455=CARTESIAN_POINT('',(-6.5,13.9999955610453,0.0111485739502716));
#456=CARTESIAN_POINT('',(-7.96020419445779E-16,13.9948194374255,6.5111465130072));
#457=CARTESIAN_POINT('Origin',(0.,13.9999955610453,0.0111485739502716));
#458=CARTESIAN_POINT('Origin',(0.,13.9999955610453,0.0111485739502716));
#459=CARTESIAN_POINT('Origin',(0.,13.9999955610457,0.0111485739502719));
#460=CARTESIAN_POINT('',(-8.5,13.9999955610453,0.0111485739502716));
#461=CARTESIAN_POINT('',(-1.04094977927525E-15,13.9932267840041,8.51114587887087));
#462=CARTESIAN_POINT('Origin',(0.,13.9999955610453,0.0111485739502716));
#463=CARTESIAN_POINT('Origin',(0.,13.9999955610453,0.0111485739502716));
#464=CARTESIAN_POINT('Origin',(-9.18485099360515E-16,13.9940231107152,7.51114619593903));
#465=CARTESIAN_POINT('Origin',(-9.25,13.9999955610455,0.0111485739502718));
#466=CARTESIAN_POINT('',(-10.,13.9999955610457,0.0111485739502719));
#467=CARTESIAN_POINT('',(10.,13.9999955610457,0.0111485739502732));
#468=CARTESIAN_POINT('Origin',(0.,13.9999955610457,0.0111485739502719));
#469=CARTESIAN_POINT('Origin',(0.,13.9999955610457,0.0111485739502719));
#470=CARTESIAN_POINT('Origin',(0.,13.4999957195798,0.0107504105949051));
#471=CARTESIAN_POINT('',(-11.,12.9999958781139,0.0103522472395382));
#472=CARTESIAN_POINT('',(11.,12.9999958781139,0.0103522472395396));
#473=CARTESIAN_POINT('Origin',(0.,12.9999958781139,0.0103522472395382));
#474=CARTESIAN_POINT('Origin',(0.,12.9999958781139,0.0103522472395382));
#475=CARTESIAN_POINT('',(10.5,13.4999957195798,0.0107504105949064));
#476=CARTESIAN_POINT('Origin',(0.,10.4999966707843,0.00836143046270393));
#477=CARTESIAN_POINT('',(-11.,7.99999746345468,0.00637061368586966));
#478=CARTESIAN_POINT('',(11.,7.99999746345468,0.00637061368587098));
#479=CARTESIAN_POINT('Origin',(0.,7.99999746345468,0.00637061368586966));
#480=CARTESIAN_POINT('Origin',(0.,7.99999746345468,0.00637061368586966));
#481=CARTESIAN_POINT('',(11.,10.4999966707843,0.00836143046270528));
#482=CARTESIAN_POINT('Origin',(0.,4.2499986524603,0.00338438852061826));
#483=CARTESIAN_POINT('',(13.25,4.2499986524603,0.00338438852061988));
#484=UNCERTAINTY_MEASURE_WITH_UNIT(LENGTH_MEASURE(0.01),#488,
'DISTANCE_ACCURACY_VALUE',
'Maximum model space distance between geometric entities at asserted c
onnectivities');
#485=UNCERTAINTY_MEASURE_WITH_UNIT(LENGTH_MEASURE(0.01),#488,
'DISTANCE_ACCURACY_VALUE',
'Maximum model space distance between geometric entities at asserted c
onnectivities');
#486=(
GEOMETRIC_REPRESENTATION_CONTEXT(3)
GLOBAL_UNCERTAINTY_ASSIGNED_CONTEXT((#484))
GLOBAL_UNIT_ASSIGNED_CONTEXT((#488,#490,#491))
REPRESENTATION_CONTEXT('','3D')
);
#487=(
GEOMETRIC_REPRESENTATION_CONTEXT(3)
GLOBAL_UNCERTAINTY_ASSIGNED_CONTEXT((#485))
GLOBAL_UNIT_ASSIGNED_CONTEXT((#488,#490,#491))
REPRESENTATION_CONTEXT('','3D')
);
#488=(
LENGTH_UNIT()
NAMED_UNIT(*)
SI_UNIT(.MILLI.,.METRE.)
);
#489=(
LENGTH_UNIT()
NAMED_UNIT(*)
SI_UNIT(.CENTI.,.METRE.)
);
#490=(
NAMED_UNIT(*)
PLANE_ANGLE_UNIT()
SI_UNIT($,.RADIAN.)
);
#491=(
NAMED_UNIT(*)
SI_UNIT($,.STERADIAN.)
SOLID_ANGLE_UNIT()
);
#492=SHAPE_DEFINITION_REPRESENTATION(#493,#494);
#493=PRODUCT_DEFINITION_SHAPE('',$,#496);
#494=SHAPE_REPRESENTATION('',(#279),#486);
#495=DESIGN_CONTEXT('part definition',#500,'design');
#496=PRODUCT_DEFINITION('vsa31m10nit','vsa31m10nit',#497,#495);
#497=PRODUCT_DEFINITION_FORMATION('',$,#502);
#498=PRODUCT_RELATED_PRODUCT_CATEGORY('vsa31m10nit','vsa31m10nit',(#502));
#499=APPLICATION_PROTOCOL_DEFINITION('international standard',
'ap203_configuration_controlled_3d_design_of_mechanical_parts_and_asse
mblies_mim_lf',2004,#500);
#500=APPLICATION_CONTEXT(
'Configuration Controlled 3D Design of Mechanical Parts and Assemblies');
#501=MECHANICAL_CONTEXT('part definition',#500,'mechanical');
#502=PRODUCT('vsa31m10nit','vsa31m10nit',$,(#501));
#503=PRESENTATION_STYLE_ASSIGNMENT((#506));
#504=PRESENTATION_STYLE_ASSIGNMENT((#507));
#505=PRESENTATION_STYLE_ASSIGNMENT((#508));
#506=SURFACE_STYLE_USAGE(.BOTH.,#515);
#507=SURFACE_STYLE_USAGE(.BOTH.,#516);
#508=SURFACE_STYLE_USAGE(.BOTH.,#517);
#509=SURFACE_STYLE_RENDERING_WITH_PROPERTIES($,#527,(#512));
#510=SURFACE_STYLE_RENDERING_WITH_PROPERTIES($,#528,(#513));
#511=SURFACE_STYLE_RENDERING_WITH_PROPERTIES($,#529,(#514));
#512=SURFACE_STYLE_TRANSPARENT(0.);
#513=SURFACE_STYLE_TRANSPARENT(0.);
#514=SURFACE_STYLE_TRANSPARENT(0.);
#515=SURFACE_SIDE_STYLE('',(#518,#509));
#516=SURFACE_SIDE_STYLE('',(#519,#510));
#517=SURFACE_SIDE_STYLE('',(#520,#511));
#518=SURFACE_STYLE_FILL_AREA(#521);
#519=SURFACE_STYLE_FILL_AREA(#522);
#520=SURFACE_STYLE_FILL_AREA(#523);
#521=FILL_AREA_STYLE('',(#524));
#522=FILL_AREA_STYLE('',(#525));
#523=FILL_AREA_STYLE('',(#526));
#524=FILL_AREA_STYLE_COLOUR('',#527);
#525=FILL_AREA_STYLE_COLOUR('',#528);
#526=FILL_AREA_STYLE_COLOUR('',#529);
#527=COLOUR_RGB('',0.32156862745098,0.32156862745098,0.32156862745098);
#528=COLOUR_RGB('',0.749019607843137,0.749019607843137,0.749019607843137);
#529=COLOUR_RGB('',0.745098039215686,0.737254901960784,0.729411764705882);
ENDSEC;
END-ISO-10303-21;
