ISO-10303-21;
HEADER;
/* Generated by software containing ST-Developer
 * from STEP Tools, Inc. (www.steptools.com) 
 */

FILE_DESCRIPTION(
/* description */ (''),
/* implementation_level */ '2;1');

FILE_NAME(
/* name */ 
'C:\\Users\\enginyeria\\Desktop\\stp ventosas roscas\\vcr82nit.stp',
/* time_stamp */ '2020-09-29T15:13:36+02:00',
/* author */ ('enginyeria'),
/* organization */ (''),
/* preprocessor_version */ 'ST-DEVELOPER v17.2',
/* originating_system */ 'Autodesk Inventor 2019',
/* authorisation */ '');

FILE_SCHEMA (('CONFIG_CONTROL_DESIGN'));
ENDSEC;

DATA;
#10=MECHANICAL_DESIGN_GEOMETRIC_PRESENTATION_REPRESENTATION('',(#31,#32,
#33,#34,#35,#36,#37,#38,#39,#40,#41,#42,#43,#44,#45,#46,#47),#611);
#11=SHAPE_REPRESENTATION_RELATIONSHIP('SRR','None',#618,#12);
#12=ADVANCED_BREP_SHAPE_REPRESENTATION('',(#13),#610);
#13=MANIFOLD_SOLID_BREP('S\X\F3lido1',#324);
#14=TOROIDAL_SURFACE('',#355,39.893042736814,1.2);
#15=TOROIDAL_SURFACE('',#377,8.5,0.75);
#16=TOROIDAL_SURFACE('',#388,20.25,4.5);
#17=FACE_BOUND('',#68,.T.);
#18=FACE_BOUND('',#77,.T.);
#19=FACE_BOUND('',#80,.T.);
#20=FACE_BOUND('',#85,.T.);
#21=PLANE('',#351);
#22=PLANE('',#354);
#23=PLANE('',#361);
#24=PLANE('',#374);
#25=PLANE('',#381);
#26=PLANE('',#396);
#27=CYLINDRICAL_SURFACE('',#348,3.);
#28=CYLINDRICAL_SURFACE('',#365,6.57850000000008);
#29=CYLINDRICAL_SURFACE('',#371,5.72249999999985);
#30=CYLINDRICAL_SURFACE('',#384,15.75);
#31=STYLED_ITEM('',(#628),#308);
#32=STYLED_ITEM('',(#628),#309);
#33=STYLED_ITEM('',(#628),#310);
#34=STYLED_ITEM('',(#629),#311);
#35=STYLED_ITEM('',(#629),#312);
#36=STYLED_ITEM('',(#628),#313);
#37=STYLED_ITEM('',(#628),#314);
#38=STYLED_ITEM('',(#628),#315);
#39=STYLED_ITEM('',(#628),#316);
#40=STYLED_ITEM('',(#629),#317);
#41=STYLED_ITEM('',(#629),#318);
#42=STYLED_ITEM('',(#629),#319);
#43=STYLED_ITEM('',(#629),#320);
#44=STYLED_ITEM('',(#629),#321);
#45=STYLED_ITEM('',(#629),#322);
#46=STYLED_ITEM('',(#629),#323);
#47=STYLED_ITEM('',(#627),#13);
#48=FACE_OUTER_BOUND('',#65,.T.);
#49=FACE_OUTER_BOUND('',#66,.T.);
#50=FACE_OUTER_BOUND('',#67,.T.);
#51=FACE_OUTER_BOUND('',#69,.T.);
#52=FACE_OUTER_BOUND('',#70,.T.);
#53=FACE_OUTER_BOUND('',#71,.T.);
#54=FACE_OUTER_BOUND('',#72,.T.);
#55=FACE_OUTER_BOUND('',#73,.T.);
#56=FACE_OUTER_BOUND('',#74,.T.);
#57=FACE_OUTER_BOUND('',#75,.T.);
#58=FACE_OUTER_BOUND('',#76,.T.);
#59=FACE_OUTER_BOUND('',#78,.T.);
#60=FACE_OUTER_BOUND('',#79,.T.);
#61=FACE_OUTER_BOUND('',#81,.T.);
#62=FACE_OUTER_BOUND('',#82,.T.);
#63=FACE_OUTER_BOUND('',#83,.T.);
#64=FACE_OUTER_BOUND('',#84,.T.);
#65=EDGE_LOOP('',(#215,#216,#217,#218,#219));
#66=EDGE_LOOP('',(#220,#221,#222,#223,#224,#225));
#67=EDGE_LOOP('',(#226,#227));
#68=EDGE_LOOP('',(#228));
#69=EDGE_LOOP('',(#229,#230));
#70=EDGE_LOOP('',(#231,#232,#233,#234,#235,#236));
#71=EDGE_LOOP('',(#237,#238));
#72=EDGE_LOOP('',(#239,#240,#241,#242,#243,#244));
#73=EDGE_LOOP('',(#245,#246,#247,#248,#249,#250));
#74=EDGE_LOOP('',(#251,#252,#253,#254,#255,#256));
#75=EDGE_LOOP('',(#257,#258,#259,#260,#261,#262));
#76=EDGE_LOOP('',(#263,#264));
#77=EDGE_LOOP('',(#265,#266));
#78=EDGE_LOOP('',(#267,#268,#269,#270,#271,#272));
#79=EDGE_LOOP('',(#273,#274));
#80=EDGE_LOOP('',(#275,#276));
#81=EDGE_LOOP('',(#277,#278,#279,#280,#281,#282,#283));
#82=EDGE_LOOP('',(#284,#285,#286,#287,#288,#289,#290,#291));
#83=EDGE_LOOP('',(#292,#293,#294,#295,#296,#297,#298));
#84=EDGE_LOOP('',(#299,#300));
#85=EDGE_LOOP('',(#301,#302));
#86=LINE('',#518,#94);
#87=LINE('',#527,#95);
#88=LINE('',#550,#96);
#89=LINE('',#556,#97);
#90=LINE('',#559,#98);
#91=LINE('',#568,#99);
#92=LINE('',#592,#100);
#93=LINE('',#606,#101);
#94=VECTOR('',#403,3.25);
#95=VECTOR('',#414,3.);
#96=VECTOR('',#443,6.15049999999997);
#97=VECTOR('',#450,6.57850000000008);
#98=VECTOR('',#453,6.15049999999997);
#99=VECTOR('',#464,5.72249999999985);
#100=VECTOR('',#493,15.75);
#101=VECTOR('',#510,28.2373702784017);
#102=CIRCLE('',#345,3.5);
#103=CIRCLE('',#346,3.);
#104=CIRCLE('',#347,3.);
#105=CIRCLE('',#349,3.);
#106=CIRCLE('',#350,3.);
#107=CIRCLE('',#352,5.72249999999985);
#108=CIRCLE('',#353,5.72249999999985);
#109=CIRCLE('',#356,39.893042736814);
#110=CIRCLE('',#357,39.893042736814);
#111=CIRCLE('',#358,1.2);
#112=CIRCLE('',#359,39.893042736814);
#113=CIRCLE('',#360,39.893042736814);
#114=CIRCLE('',#363,6.57850000000008);
#115=CIRCLE('',#364,6.57850000000008);
#116=CIRCLE('',#366,6.57850000000008);
#117=CIRCLE('',#367,6.57850000000008);
#118=CIRCLE('',#369,5.72249999999985);
#119=CIRCLE('',#370,5.72249999999985);
#120=CIRCLE('',#372,5.72249999999985);
#121=CIRCLE('',#373,5.72249999999985);
#122=CIRCLE('',#375,7.75);
#123=CIRCLE('',#376,7.75);
#124=CIRCLE('',#378,9.25);
#125=CIRCLE('',#379,9.25);
#126=CIRCLE('',#380,0.75);
#127=CIRCLE('',#382,15.75);
#128=CIRCLE('',#383,15.75);
#129=CIRCLE('',#385,15.75);
#130=CIRCLE('',#386,15.75);
#131=CIRCLE('',#387,15.75);
#132=CIRCLE('',#389,17.596323538397);
#133=CIRCLE('',#390,17.596323538397);
#134=CIRCLE('',#391,4.5);
#135=CIRCLE('',#392,17.596323538397);
#136=CIRCLE('',#394,38.8784170184065);
#137=CIRCLE('',#395,38.8784170184065);
#138=VERTEX_POINT('',#515);
#139=VERTEX_POINT('',#517);
#140=VERTEX_POINT('',#519);
#141=VERTEX_POINT('',#523);
#142=VERTEX_POINT('',#524);
#143=VERTEX_POINT('',#529);
#144=VERTEX_POINT('',#530);
#145=VERTEX_POINT('',#535);
#146=VERTEX_POINT('',#536);
#147=VERTEX_POINT('',#539);
#148=VERTEX_POINT('',#541);
#149=VERTEX_POINT('',#546);
#150=VERTEX_POINT('',#547);
#151=VERTEX_POINT('',#552);
#152=VERTEX_POINT('',#553);
#153=VERTEX_POINT('',#558);
#154=VERTEX_POINT('',#560);
#155=VERTEX_POINT('',#564);
#156=VERTEX_POINT('',#565);
#157=VERTEX_POINT('',#570);
#158=VERTEX_POINT('',#571);
#159=VERTEX_POINT('',#575);
#160=VERTEX_POINT('',#576);
#161=VERTEX_POINT('',#581);
#162=VERTEX_POINT('',#582);
#163=VERTEX_POINT('',#586);
#164=VERTEX_POINT('',#587);
#165=VERTEX_POINT('',#589);
#166=VERTEX_POINT('',#594);
#167=VERTEX_POINT('',#595);
#168=VERTEX_POINT('',#597);
#169=VERTEX_POINT('',#602);
#170=VERTEX_POINT('',#603);
#171=EDGE_CURVE('',#138,#138,#102,.T.);
#172=EDGE_CURVE('',#138,#139,#86,.T.);
#173=EDGE_CURVE('',#139,#140,#103,.T.);
#174=EDGE_CURVE('',#140,#139,#104,.T.);
#175=EDGE_CURVE('',#141,#142,#105,.T.);
#176=EDGE_CURVE('',#142,#141,#106,.T.);
#177=EDGE_CURVE('',#142,#140,#87,.T.);
#178=EDGE_CURVE('',#143,#144,#107,.T.);
#179=EDGE_CURVE('',#144,#143,#108,.T.);
#180=EDGE_CURVE('',#145,#146,#109,.T.);
#181=EDGE_CURVE('',#146,#145,#110,.T.);
#182=EDGE_CURVE('',#146,#147,#111,.T.);
#183=EDGE_CURVE('',#147,#148,#112,.T.);
#184=EDGE_CURVE('',#148,#147,#113,.T.);
#185=EDGE_CURVE('',#149,#150,#114,.T.);
#186=EDGE_CURVE('',#150,#149,#115,.T.);
#187=EDGE_CURVE('',#150,#144,#88,.T.);
#188=EDGE_CURVE('',#151,#152,#116,.T.);
#189=EDGE_CURVE('',#152,#151,#117,.T.);
#190=EDGE_CURVE('',#152,#150,#89,.T.);
#191=EDGE_CURVE('',#152,#153,#90,.T.);
#192=EDGE_CURVE('',#154,#153,#118,.T.);
#193=EDGE_CURVE('',#153,#154,#119,.T.);
#194=EDGE_CURVE('',#155,#156,#120,.T.);
#195=EDGE_CURVE('',#156,#155,#121,.T.);
#196=EDGE_CURVE('',#156,#153,#91,.T.);
#197=EDGE_CURVE('',#157,#158,#122,.T.);
#198=EDGE_CURVE('',#158,#157,#123,.T.);
#199=EDGE_CURVE('',#159,#160,#124,.T.);
#200=EDGE_CURVE('',#160,#159,#125,.T.);
#201=EDGE_CURVE('',#160,#158,#126,.T.);
#202=EDGE_CURVE('',#161,#162,#127,.T.);
#203=EDGE_CURVE('',#162,#161,#128,.T.);
#204=EDGE_CURVE('',#163,#164,#129,.T.);
#205=EDGE_CURVE('',#165,#163,#130,.T.);
#206=EDGE_CURVE('',#164,#165,#131,.T.);
#207=EDGE_CURVE('',#164,#162,#92,.T.);
#208=EDGE_CURVE('',#166,#167,#132,.T.);
#209=EDGE_CURVE('',#168,#166,#133,.T.);
#210=EDGE_CURVE('',#168,#165,#134,.T.);
#211=EDGE_CURVE('',#167,#168,#135,.T.);
#212=EDGE_CURVE('',#169,#170,#136,.T.);
#213=EDGE_CURVE('',#170,#169,#137,.T.);
#214=EDGE_CURVE('',#170,#167,#93,.T.);
#215=ORIENTED_EDGE('',*,*,#171,.T.);
#216=ORIENTED_EDGE('',*,*,#172,.T.);
#217=ORIENTED_EDGE('',*,*,#173,.T.);
#218=ORIENTED_EDGE('',*,*,#174,.T.);
#219=ORIENTED_EDGE('',*,*,#172,.F.);
#220=ORIENTED_EDGE('',*,*,#175,.F.);
#221=ORIENTED_EDGE('',*,*,#176,.F.);
#222=ORIENTED_EDGE('',*,*,#177,.T.);
#223=ORIENTED_EDGE('',*,*,#173,.F.);
#224=ORIENTED_EDGE('',*,*,#174,.F.);
#225=ORIENTED_EDGE('',*,*,#177,.F.);
#226=ORIENTED_EDGE('',*,*,#178,.F.);
#227=ORIENTED_EDGE('',*,*,#179,.F.);
#228=ORIENTED_EDGE('',*,*,#171,.F.);
#229=ORIENTED_EDGE('',*,*,#175,.T.);
#230=ORIENTED_EDGE('',*,*,#176,.T.);
#231=ORIENTED_EDGE('',*,*,#180,.F.);
#232=ORIENTED_EDGE('',*,*,#181,.F.);
#233=ORIENTED_EDGE('',*,*,#182,.T.);
#234=ORIENTED_EDGE('',*,*,#183,.T.);
#235=ORIENTED_EDGE('',*,*,#184,.T.);
#236=ORIENTED_EDGE('',*,*,#182,.F.);
#237=ORIENTED_EDGE('',*,*,#180,.T.);
#238=ORIENTED_EDGE('',*,*,#181,.T.);
#239=ORIENTED_EDGE('',*,*,#185,.F.);
#240=ORIENTED_EDGE('',*,*,#186,.F.);
#241=ORIENTED_EDGE('',*,*,#187,.T.);
#242=ORIENTED_EDGE('',*,*,#179,.T.);
#243=ORIENTED_EDGE('',*,*,#178,.T.);
#244=ORIENTED_EDGE('',*,*,#187,.F.);
#245=ORIENTED_EDGE('',*,*,#188,.F.);
#246=ORIENTED_EDGE('',*,*,#189,.F.);
#247=ORIENTED_EDGE('',*,*,#190,.T.);
#248=ORIENTED_EDGE('',*,*,#186,.T.);
#249=ORIENTED_EDGE('',*,*,#185,.T.);
#250=ORIENTED_EDGE('',*,*,#190,.F.);
#251=ORIENTED_EDGE('',*,*,#188,.T.);
#252=ORIENTED_EDGE('',*,*,#191,.T.);
#253=ORIENTED_EDGE('',*,*,#192,.F.);
#254=ORIENTED_EDGE('',*,*,#193,.F.);
#255=ORIENTED_EDGE('',*,*,#191,.F.);
#256=ORIENTED_EDGE('',*,*,#189,.T.);
#257=ORIENTED_EDGE('',*,*,#194,.F.);
#258=ORIENTED_EDGE('',*,*,#195,.F.);
#259=ORIENTED_EDGE('',*,*,#196,.T.);
#260=ORIENTED_EDGE('',*,*,#193,.T.);
#261=ORIENTED_EDGE('',*,*,#192,.T.);
#262=ORIENTED_EDGE('',*,*,#196,.F.);
#263=ORIENTED_EDGE('',*,*,#197,.F.);
#264=ORIENTED_EDGE('',*,*,#198,.F.);
#265=ORIENTED_EDGE('',*,*,#194,.T.);
#266=ORIENTED_EDGE('',*,*,#195,.T.);
#267=ORIENTED_EDGE('',*,*,#199,.F.);
#268=ORIENTED_EDGE('',*,*,#200,.F.);
#269=ORIENTED_EDGE('',*,*,#201,.T.);
#270=ORIENTED_EDGE('',*,*,#198,.T.);
#271=ORIENTED_EDGE('',*,*,#197,.T.);
#272=ORIENTED_EDGE('',*,*,#201,.F.);
#273=ORIENTED_EDGE('',*,*,#202,.F.);
#274=ORIENTED_EDGE('',*,*,#203,.F.);
#275=ORIENTED_EDGE('',*,*,#199,.T.);
#276=ORIENTED_EDGE('',*,*,#200,.T.);
#277=ORIENTED_EDGE('',*,*,#204,.F.);
#278=ORIENTED_EDGE('',*,*,#205,.F.);
#279=ORIENTED_EDGE('',*,*,#206,.F.);
#280=ORIENTED_EDGE('',*,*,#207,.T.);
#281=ORIENTED_EDGE('',*,*,#203,.T.);
#282=ORIENTED_EDGE('',*,*,#202,.T.);
#283=ORIENTED_EDGE('',*,*,#207,.F.);
#284=ORIENTED_EDGE('',*,*,#208,.F.);
#285=ORIENTED_EDGE('',*,*,#209,.F.);
#286=ORIENTED_EDGE('',*,*,#210,.T.);
#287=ORIENTED_EDGE('',*,*,#205,.T.);
#288=ORIENTED_EDGE('',*,*,#204,.T.);
#289=ORIENTED_EDGE('',*,*,#206,.T.);
#290=ORIENTED_EDGE('',*,*,#210,.F.);
#291=ORIENTED_EDGE('',*,*,#211,.F.);
#292=ORIENTED_EDGE('',*,*,#212,.F.);
#293=ORIENTED_EDGE('',*,*,#213,.F.);
#294=ORIENTED_EDGE('',*,*,#214,.T.);
#295=ORIENTED_EDGE('',*,*,#211,.T.);
#296=ORIENTED_EDGE('',*,*,#209,.T.);
#297=ORIENTED_EDGE('',*,*,#208,.T.);
#298=ORIENTED_EDGE('',*,*,#214,.F.);
#299=ORIENTED_EDGE('',*,*,#184,.F.);
#300=ORIENTED_EDGE('',*,*,#183,.F.);
#301=ORIENTED_EDGE('',*,*,#212,.T.);
#302=ORIENTED_EDGE('',*,*,#213,.T.);
#303=CONICAL_SURFACE('',#344,3.25,0.78539816339745);
#304=CONICAL_SURFACE('',#362,6.15049999999997,0.785398163397714);
#305=CONICAL_SURFACE('',#368,6.15049999999997,0.785398163397714);
#306=CONICAL_SURFACE('',#393,28.2373702784017,0.936694012271499);
#307=ADVANCED_FACE('',(#48),#303,.F.);
#308=ADVANCED_FACE('',(#49),#27,.F.);
#309=ADVANCED_FACE('',(#50,#17),#21,.T.);
#310=ADVANCED_FACE('',(#51),#22,.T.);
#311=ADVANCED_FACE('',(#52),#14,.T.);
#312=ADVANCED_FACE('',(#53),#23,.T.);
#313=ADVANCED_FACE('',(#54),#304,.T.);
#314=ADVANCED_FACE('',(#55),#28,.T.);
#315=ADVANCED_FACE('',(#56),#305,.T.);
#316=ADVANCED_FACE('',(#57),#29,.T.);
#317=ADVANCED_FACE('',(#58,#18),#24,.T.);
#318=ADVANCED_FACE('',(#59),#15,.T.);
#319=ADVANCED_FACE('',(#60,#19),#25,.T.);
#320=ADVANCED_FACE('',(#61),#30,.T.);
#321=ADVANCED_FACE('',(#62),#16,.F.);
#322=ADVANCED_FACE('',(#63),#306,.T.);
#323=ADVANCED_FACE('',(#64,#20),#26,.T.);
#324=CLOSED_SHELL('',(#307,#308,#309,#310,#311,#312,#313,#314,#315,#316,
#317,#318,#319,#320,#321,#322,#323));
#325=DERIVED_UNIT_ELEMENT(#327,1.);
#326=DERIVED_UNIT_ELEMENT(#613,3.);
#327=(
MASS_UNIT()
NAMED_UNIT(*)
SI_UNIT($,.GRAM.)
);
#328=DERIVED_UNIT((#325,#326));
#329=MEASURE_REPRESENTATION_ITEM('density measure',
POSITIVE_RATIO_MEASURE(1.),#328);
#330=PROPERTY_DEFINITION_REPRESENTATION(#335,#332);
#331=PROPERTY_DEFINITION_REPRESENTATION(#336,#333);
#332=REPRESENTATION('material name',(#334),#610);
#333=REPRESENTATION('density',(#329),#610);
#334=DESCRIPTIVE_REPRESENTATION_ITEM('Generic','Generic');
#335=PROPERTY_DEFINITION('material property','material name',#620);
#336=PROPERTY_DEFINITION('material property','density of part',#620);
#337=DATE_TIME_ROLE('creation_date');
#338=CC_DESIGN_DATE_AND_TIME_ASSIGNMENT(#339,#337,(#620));
#339=DATE_AND_TIME(#340,#341);
#340=CALENDAR_DATE(2020,25,3);
#341=LOCAL_TIME(9,8,42.,#342);
#342=COORDINATED_UNIVERSAL_TIME_OFFSET(0,0,.BEHIND.);
#343=AXIS2_PLACEMENT_3D('placement',#513,#397,#398);
#344=AXIS2_PLACEMENT_3D('',#514,#399,#400);
#345=AXIS2_PLACEMENT_3D('',#516,#401,#402);
#346=AXIS2_PLACEMENT_3D('',#520,#404,#405);
#347=AXIS2_PLACEMENT_3D('',#521,#406,#407);
#348=AXIS2_PLACEMENT_3D('',#522,#408,#409);
#349=AXIS2_PLACEMENT_3D('',#525,#410,#411);
#350=AXIS2_PLACEMENT_3D('',#526,#412,#413);
#351=AXIS2_PLACEMENT_3D('',#528,#415,#416);
#352=AXIS2_PLACEMENT_3D('',#531,#417,#418);
#353=AXIS2_PLACEMENT_3D('',#532,#419,#420);
#354=AXIS2_PLACEMENT_3D('',#533,#421,#422);
#355=AXIS2_PLACEMENT_3D('',#534,#423,#424);
#356=AXIS2_PLACEMENT_3D('',#537,#425,#426);
#357=AXIS2_PLACEMENT_3D('',#538,#427,#428);
#358=AXIS2_PLACEMENT_3D('',#540,#429,#430);
#359=AXIS2_PLACEMENT_3D('',#542,#431,#432);
#360=AXIS2_PLACEMENT_3D('',#543,#433,#434);
#361=AXIS2_PLACEMENT_3D('',#544,#435,#436);
#362=AXIS2_PLACEMENT_3D('',#545,#437,#438);
#363=AXIS2_PLACEMENT_3D('',#548,#439,#440);
#364=AXIS2_PLACEMENT_3D('',#549,#441,#442);
#365=AXIS2_PLACEMENT_3D('',#551,#444,#445);
#366=AXIS2_PLACEMENT_3D('',#554,#446,#447);
#367=AXIS2_PLACEMENT_3D('',#555,#448,#449);
#368=AXIS2_PLACEMENT_3D('',#557,#451,#452);
#369=AXIS2_PLACEMENT_3D('',#561,#454,#455);
#370=AXIS2_PLACEMENT_3D('',#562,#456,#457);
#371=AXIS2_PLACEMENT_3D('',#563,#458,#459);
#372=AXIS2_PLACEMENT_3D('',#566,#460,#461);
#373=AXIS2_PLACEMENT_3D('',#567,#462,#463);
#374=AXIS2_PLACEMENT_3D('',#569,#465,#466);
#375=AXIS2_PLACEMENT_3D('',#572,#467,#468);
#376=AXIS2_PLACEMENT_3D('',#573,#469,#470);
#377=AXIS2_PLACEMENT_3D('',#574,#471,#472);
#378=AXIS2_PLACEMENT_3D('',#577,#473,#474);
#379=AXIS2_PLACEMENT_3D('',#578,#475,#476);
#380=AXIS2_PLACEMENT_3D('',#579,#477,#478);
#381=AXIS2_PLACEMENT_3D('',#580,#479,#480);
#382=AXIS2_PLACEMENT_3D('',#583,#481,#482);
#383=AXIS2_PLACEMENT_3D('',#584,#483,#484);
#384=AXIS2_PLACEMENT_3D('',#585,#485,#486);
#385=AXIS2_PLACEMENT_3D('',#588,#487,#488);
#386=AXIS2_PLACEMENT_3D('',#590,#489,#490);
#387=AXIS2_PLACEMENT_3D('',#591,#491,#492);
#388=AXIS2_PLACEMENT_3D('',#593,#494,#495);
#389=AXIS2_PLACEMENT_3D('',#596,#496,#497);
#390=AXIS2_PLACEMENT_3D('',#598,#498,#499);
#391=AXIS2_PLACEMENT_3D('',#599,#500,#501);
#392=AXIS2_PLACEMENT_3D('',#600,#502,#503);
#393=AXIS2_PLACEMENT_3D('',#601,#504,#505);
#394=AXIS2_PLACEMENT_3D('',#604,#506,#507);
#395=AXIS2_PLACEMENT_3D('',#605,#508,#509);
#396=AXIS2_PLACEMENT_3D('',#607,#511,#512);
#397=DIRECTION('axis',(0.,0.,1.));
#398=DIRECTION('refdir',(1.,0.,0.));
#399=DIRECTION('center_axis',(0.,1.,0.));
#400=DIRECTION('ref_axis',(1.,0.,0.));
#401=DIRECTION('center_axis',(0.,1.,0.));
#402=DIRECTION('ref_axis',(1.,0.,0.));
#403=DIRECTION('',(0.707106781186549,-0.707106781186546,-8.65956056235495E-17));
#404=DIRECTION('center_axis',(0.,-1.,0.));
#405=DIRECTION('ref_axis',(1.,0.,0.));
#406=DIRECTION('center_axis',(0.,-1.,0.));
#407=DIRECTION('ref_axis',(1.,0.,0.));
#408=DIRECTION('center_axis',(0.,1.,-6.66133814775094E-16));
#409=DIRECTION('ref_axis',(-1.,0.,0.));
#410=DIRECTION('center_axis',(0.,1.,-6.66133814775094E-16));
#411=DIRECTION('ref_axis',(-1.,0.,0.));
#412=DIRECTION('center_axis',(0.,1.,-6.66133814775094E-16));
#413=DIRECTION('ref_axis',(-1.,0.,0.));
#414=DIRECTION('',(0.,1.,-6.66133814775094E-16));
#415=DIRECTION('center_axis',(0.,1.,0.));
#416=DIRECTION('ref_axis',(0.,0.,1.));
#417=DIRECTION('center_axis',(0.,-1.,0.));
#418=DIRECTION('ref_axis',(-1.,0.,0.));
#419=DIRECTION('center_axis',(0.,-1.,0.));
#420=DIRECTION('ref_axis',(-1.,0.,0.));
#421=DIRECTION('center_axis',(0.,1.,-6.66133814775094E-16));
#422=DIRECTION('ref_axis',(0.,6.66133814775094E-16,1.));
#423=DIRECTION('center_axis',(0.,-1.,0.));
#424=DIRECTION('ref_axis',(0.,0.,-1.));
#425=DIRECTION('center_axis',(0.,-1.,0.));
#426=DIRECTION('ref_axis',(-1.,0.,0.));
#427=DIRECTION('center_axis',(0.,-1.,0.));
#428=DIRECTION('ref_axis',(-1.,0.,0.));
#429=DIRECTION('center_axis',(-1.,0.,-1.22464679914735E-16));
#430=DIRECTION('ref_axis',(-1.22464679914735E-16,0.,1.));
#431=DIRECTION('center_axis',(0.,-1.,0.));
#432=DIRECTION('ref_axis',(-1.,0.,0.));
#433=DIRECTION('center_axis',(0.,-1.,0.));
#434=DIRECTION('ref_axis',(-1.,0.,0.));
#435=DIRECTION('center_axis',(0.,-1.,0.));
#436=DIRECTION('ref_axis',(0.,0.,-1.));
#437=DIRECTION('center_axis',(0.,-1.,0.));
#438=DIRECTION('ref_axis',(-1.,0.,0.));
#439=DIRECTION('center_axis',(0.,-1.,0.));
#440=DIRECTION('ref_axis',(-1.,0.,0.));
#441=DIRECTION('center_axis',(0.,-1.,0.));
#442=DIRECTION('ref_axis',(-1.,0.,0.));
#443=DIRECTION('',(-0.707106781186735,0.70710678118636,-8.65956056235723E-17));
#444=DIRECTION('center_axis',(0.,-1.,0.));
#445=DIRECTION('ref_axis',(-1.,0.,0.));
#446=DIRECTION('center_axis',(0.,-1.,0.));
#447=DIRECTION('ref_axis',(-1.,0.,0.));
#448=DIRECTION('center_axis',(0.,-1.,0.));
#449=DIRECTION('ref_axis',(-1.,0.,0.));
#450=DIRECTION('',(0.,1.,0.));
#451=DIRECTION('center_axis',(0.,1.,0.));
#452=DIRECTION('ref_axis',(-1.,0.,0.));
#453=DIRECTION('',(-0.707106781186735,-0.70710678118636,8.65956056235723E-17));
#454=DIRECTION('center_axis',(0.,-1.,0.));
#455=DIRECTION('ref_axis',(-1.,0.,0.));
#456=DIRECTION('center_axis',(0.,-1.,0.));
#457=DIRECTION('ref_axis',(-1.,0.,0.));
#458=DIRECTION('center_axis',(0.,-1.,0.));
#459=DIRECTION('ref_axis',(-1.,0.,0.));
#460=DIRECTION('center_axis',(0.,-1.,0.));
#461=DIRECTION('ref_axis',(-1.,0.,0.));
#462=DIRECTION('center_axis',(0.,-1.,0.));
#463=DIRECTION('ref_axis',(-1.,0.,0.));
#464=DIRECTION('',(0.,1.,0.));
#465=DIRECTION('center_axis',(0.,1.,0.));
#466=DIRECTION('ref_axis',(0.,0.,1.));
#467=DIRECTION('center_axis',(0.,-1.,0.));
#468=DIRECTION('ref_axis',(-1.,0.,0.));
#469=DIRECTION('center_axis',(0.,-1.,0.));
#470=DIRECTION('ref_axis',(-1.,0.,0.));
#471=DIRECTION('center_axis',(0.,-1.,0.));
#472=DIRECTION('ref_axis',(0.,0.,-1.));
#473=DIRECTION('center_axis',(0.,-1.,0.));
#474=DIRECTION('ref_axis',(-1.,0.,0.));
#475=DIRECTION('center_axis',(0.,-1.,0.));
#476=DIRECTION('ref_axis',(-1.,0.,0.));
#477=DIRECTION('center_axis',(-1.,0.,-1.22464679914735E-16));
#478=DIRECTION('ref_axis',(-1.22464679914735E-16,0.,1.));
#479=DIRECTION('center_axis',(0.,1.,0.));
#480=DIRECTION('ref_axis',(0.,0.,1.));
#481=DIRECTION('center_axis',(0.,-1.,0.));
#482=DIRECTION('ref_axis',(-1.,0.,0.));
#483=DIRECTION('center_axis',(0.,-1.,0.));
#484=DIRECTION('ref_axis',(-1.,0.,0.));
#485=DIRECTION('center_axis',(0.,-1.,0.));
#486=DIRECTION('ref_axis',(-1.,0.,0.));
#487=DIRECTION('center_axis',(0.,-1.,0.));
#488=DIRECTION('ref_axis',(-1.,0.,0.));
#489=DIRECTION('center_axis',(0.,-1.,0.));
#490=DIRECTION('ref_axis',(-1.,0.,0.));
#491=DIRECTION('center_axis',(0.,-1.,0.));
#492=DIRECTION('ref_axis',(-1.,0.,0.));
#493=DIRECTION('',(0.,1.,0.));
#494=DIRECTION('center_axis',(0.,-1.,0.));
#495=DIRECTION('ref_axis',(0.,0.,-1.));
#496=DIRECTION('center_axis',(0.,-1.,0.));
#497=DIRECTION('ref_axis',(-1.,0.,0.));
#498=DIRECTION('center_axis',(0.,-1.,0.));
#499=DIRECTION('ref_axis',(-1.,0.,0.));
#500=DIRECTION('center_axis',(1.,0.,1.22464679914735E-16));
#501=DIRECTION('ref_axis',(-1.22464679914735E-16,0.,1.));
#502=DIRECTION('center_axis',(0.,-1.,0.));
#503=DIRECTION('ref_axis',(-1.,0.,0.));
#504=DIRECTION('center_axis',(0.,-1.,0.));
#505=DIRECTION('ref_axis',(-1.,0.,0.));
#506=DIRECTION('center_axis',(0.,-1.,0.));
#507=DIRECTION('ref_axis',(-1.,0.,0.));
#508=DIRECTION('center_axis',(0.,-1.,0.));
#509=DIRECTION('ref_axis',(-1.,0.,0.));
#510=DIRECTION('',(-0.80560385886248,0.592454574280494,-9.86580187136693E-17));
#511=DIRECTION('center_axis',(0.,1.,0.));
#512=DIRECTION('ref_axis',(0.,0.,1.));
#513=CARTESIAN_POINT('',(0.,0.,0.));
#514=CARTESIAN_POINT('Origin',(0.,33.9001023163781,3.33066907387548E-16));
#515=CARTESIAN_POINT('',(-3.5,34.1501023163781,7.61693287089121E-16));
#516=CARTESIAN_POINT('Origin',(0.,34.1501023163781,3.33066907387548E-16));
#517=CARTESIAN_POINT('',(-3.,33.6501023163781,-3.43271323566583E-17));
#518=CARTESIAN_POINT('',(-3.25,33.9001023163781,7.31077117110438E-16));
#519=CARTESIAN_POINT('',(3.,33.6501023163781,-3.43271323566628E-17));
#520=CARTESIAN_POINT('Origin',(0.,33.6501023163781,3.33066907387548E-16));
#521=CARTESIAN_POINT('Origin',(0.,33.6501023163781,3.33066907387548E-16));
#522=CARTESIAN_POINT('Origin',(0.,23.6501023163781,6.99440505513849E-15));
#523=CARTESIAN_POINT('',(-3.,23.6501023163781,6.99440505513849E-15));
#524=CARTESIAN_POINT('',(3.,23.6501023163781,6.62701101539429E-15));
#525=CARTESIAN_POINT('Origin',(0.,23.6501023163781,6.99440505513849E-15));
#526=CARTESIAN_POINT('Origin',(0.,23.6501023163781,6.99440505513849E-15));
#527=CARTESIAN_POINT('',(3.,23.6501023163781,6.62701101539429E-15));
#528=CARTESIAN_POINT('Origin',(-2.86124999999993,34.1501023163781,0.));
#529=CARTESIAN_POINT('',(-5.72249999999985,34.1501023163781,0.));
#530=CARTESIAN_POINT('',(5.72249999999984,34.1501023163781,7.00804130812054E-16));
#531=CARTESIAN_POINT('Origin',(0.,34.1501023163781,0.));
#532=CARTESIAN_POINT('Origin',(0.,34.1501023163781,0.));
#533=CARTESIAN_POINT('Origin',(0.,23.6501023163781,6.99440505513849E-15));
#534=CARTESIAN_POINT('Origin',(0.,1.20000000000002,0.));
#535=CARTESIAN_POINT('',(-39.893042736814,1.70974345792274E-14,0.));
#536=CARTESIAN_POINT('',(-4.88548870958878E-15,1.69309011255336E-14,39.893042736814));
#537=CARTESIAN_POINT('Origin',(0.,1.68753899743024E-14,0.));
#538=CARTESIAN_POINT('Origin',(0.,1.68753899743024E-14,0.));
#539=CARTESIAN_POINT('',(-4.88548870958878E-15,2.40000000000003,39.893042736814));
#540=CARTESIAN_POINT('Origin',(-4.88548870958878E-15,1.20000000000002,39.893042736814));
#541=CARTESIAN_POINT('',(-39.893042736814,2.40000000000003,0.));
#542=CARTESIAN_POINT('Origin',(0.,2.40000000000003,0.));
#543=CARTESIAN_POINT('Origin',(0.,2.40000000000003,0.));
#544=CARTESIAN_POINT('Origin',(-19.946521368407,8.54871728961371E-15,0.));
#545=CARTESIAN_POINT('Origin',(0.,33.7221023163782,0.));
#546=CARTESIAN_POINT('',(-6.57850000000008,33.2941023163783,0.));
#547=CARTESIAN_POINT('',(6.57850000000009,33.2941023163783,8.05633896819097E-16));
#548=CARTESIAN_POINT('Origin',(0.,33.2941023163783,0.));
#549=CARTESIAN_POINT('Origin',(0.,33.2941023163783,0.));
#550=CARTESIAN_POINT('',(6.15049999999997,33.7221023163782,7.53219013815576E-16));
#551=CARTESIAN_POINT('Origin',(0.,29.6501023163783,0.));
#552=CARTESIAN_POINT('',(-6.57850000000008,26.0061023163783,0.));
#553=CARTESIAN_POINT('',(6.57850000000008,26.0061023163783,8.05633896819096E-16));
#554=CARTESIAN_POINT('Origin',(0.,26.0061023163783,0.));
#555=CARTESIAN_POINT('Origin',(0.,26.0061023163783,0.));
#556=CARTESIAN_POINT('',(6.57850000000008,29.6501023163783,8.05633896819096E-16));
#557=CARTESIAN_POINT('Origin',(0.,25.5781023163784,0.));
#558=CARTESIAN_POINT('',(5.72249999999985,25.1501023163785,-7.00804130812054E-16));
#559=CARTESIAN_POINT('',(6.15049999999997,25.5781023163784,-7.53219013815576E-16));
#560=CARTESIAN_POINT('',(-5.72249999999985,25.1501023163785,0.));
#561=CARTESIAN_POINT('Origin',(0.,25.1501023163785,0.));
#562=CARTESIAN_POINT('Origin',(0.,25.1501023163785,0.));
#563=CARTESIAN_POINT('Origin',(0.,24.4001023163782,0.));
#564=CARTESIAN_POINT('',(-5.72249999999985,23.6501023163778,0.));
#565=CARTESIAN_POINT('',(5.72249999999985,23.6501023163778,7.00804130812055E-16));
#566=CARTESIAN_POINT('Origin',(0.,23.6501023163778,0.));
#567=CARTESIAN_POINT('Origin',(0.,23.6501023163778,0.));
#568=CARTESIAN_POINT('',(5.72249999999985,24.4001023163782,7.00804130812055E-16));
#569=CARTESIAN_POINT('Origin',(-6.73624999999993,23.6501023163778,0.));
#570=CARTESIAN_POINT('',(-7.75,23.6501023163778,0.));
#571=CARTESIAN_POINT('',(-9.49101269339199E-16,23.6501023163778,7.75));
#572=CARTESIAN_POINT('Origin',(0.,23.6501023163778,0.));
#573=CARTESIAN_POINT('Origin',(0.,23.6501023163778,0.));
#574=CARTESIAN_POINT('Origin',(0.,23.6501023163778,0.));
#575=CARTESIAN_POINT('',(-9.25,23.6501023163778,0.));
#576=CARTESIAN_POINT('',(-1.1327982892113E-15,23.6501023163778,9.25));
#577=CARTESIAN_POINT('Origin',(0.,23.6501023163778,0.));
#578=CARTESIAN_POINT('Origin',(0.,23.6501023163778,0.));
#579=CARTESIAN_POINT('Origin',(-1.04094977927525E-15,23.6501023163778,8.5));
#580=CARTESIAN_POINT('Origin',(-12.5,23.6501023163778,0.));
#581=CARTESIAN_POINT('',(-15.75,23.6501023163778,0.));
#582=CARTESIAN_POINT('',(15.75,23.6501023163778,1.92881870865708E-15));
#583=CARTESIAN_POINT('Origin',(0.,23.6501023163778,0.));
#584=CARTESIAN_POINT('Origin',(0.,23.6501023163778,0.));
#585=CARTESIAN_POINT('Origin',(0.,22.6677958988367,0.));
#586=CARTESIAN_POINT('',(-15.75,21.6854894812955,0.));
#587=CARTESIAN_POINT('',(15.75,21.6854894812955,1.92881870865708E-15));
#588=CARTESIAN_POINT('Origin',(0.,21.6854894812955,0.));
#589=CARTESIAN_POINT('',(-1.92881870865708E-15,21.6854894812955,15.75));
#590=CARTESIAN_POINT('Origin',(0.,21.6854894812955,0.));
#591=CARTESIAN_POINT('Origin',(0.,21.6854894812955,0.));
#592=CARTESIAN_POINT('',(15.75,22.6677958988367,1.92881870865708E-15));
#593=CARTESIAN_POINT('Origin',(0.,21.6854894812955,0.));
#594=CARTESIAN_POINT('',(-17.596323538397,18.0512080891722,0.));
#595=CARTESIAN_POINT('',(17.596323538397,18.0512080891721,2.15492812980591E-15));
#596=CARTESIAN_POINT('Origin',(0.,18.0512080891722,0.));
#597=CARTESIAN_POINT('',(-2.15492812980591E-15,18.0512080891722,17.596323538397));
#598=CARTESIAN_POINT('Origin',(0.,18.0512080891722,0.));
#599=CARTESIAN_POINT('Origin',(-2.47990976827339E-15,21.6854894812955,20.25));
#600=CARTESIAN_POINT('Origin',(0.,18.0512080891722,0.));
#601=CARTESIAN_POINT('Origin',(0.,10.2256040445861,0.));
#602=CARTESIAN_POINT('',(-38.8784170184065,2.40000000000003,0.));
#603=CARTESIAN_POINT('',(38.8784170184065,2.40000000000002,4.76123289575075E-15));
#604=CARTESIAN_POINT('Origin',(0.,2.40000000000003,0.));
#605=CARTESIAN_POINT('Origin',(0.,2.40000000000003,0.));
#606=CARTESIAN_POINT('',(28.2373702784017,10.2256040445861,3.45808051277833E-15));
#607=CARTESIAN_POINT('Origin',(-39.3857298776103,2.40000000000003,0.));
#608=UNCERTAINTY_MEASURE_WITH_UNIT(LENGTH_MEASURE(0.01),#612,
'DISTANCE_ACCURACY_VALUE',
'Maximum model space distance between geometric entities at asserted c
onnectivities');
#609=UNCERTAINTY_MEASURE_WITH_UNIT(LENGTH_MEASURE(0.01),#612,
'DISTANCE_ACCURACY_VALUE',
'Maximum model space distance between geometric entities at asserted c
onnectivities');
#610=(
GEOMETRIC_REPRESENTATION_CONTEXT(3)
GLOBAL_UNCERTAINTY_ASSIGNED_CONTEXT((#608))
GLOBAL_UNIT_ASSIGNED_CONTEXT((#612,#614,#615))
REPRESENTATION_CONTEXT('','3D')
);
#611=(
GEOMETRIC_REPRESENTATION_CONTEXT(3)
GLOBAL_UNCERTAINTY_ASSIGNED_CONTEXT((#609))
GLOBAL_UNIT_ASSIGNED_CONTEXT((#612,#614,#615))
REPRESENTATION_CONTEXT('','3D')
);
#612=(
LENGTH_UNIT()
NAMED_UNIT(*)
SI_UNIT(.MILLI.,.METRE.)
);
#613=(
LENGTH_UNIT()
NAMED_UNIT(*)
SI_UNIT(.CENTI.,.METRE.)
);
#614=(
NAMED_UNIT(*)
PLANE_ANGLE_UNIT()
SI_UNIT($,.RADIAN.)
);
#615=(
NAMED_UNIT(*)
SI_UNIT($,.STERADIAN.)
SOLID_ANGLE_UNIT()
);
#616=SHAPE_DEFINITION_REPRESENTATION(#617,#618);
#617=PRODUCT_DEFINITION_SHAPE('',$,#620);
#618=SHAPE_REPRESENTATION('',(#343),#610);
#619=DESIGN_CONTEXT('part definition',#624,'design');
#620=PRODUCT_DEFINITION('vcr82nit','vcr82nit',#621,#619);
#621=PRODUCT_DEFINITION_FORMATION('',$,#626);
#622=PRODUCT_RELATED_PRODUCT_CATEGORY('vcr82nit','vcr82nit',(#626));
#623=APPLICATION_PROTOCOL_DEFINITION('international standard',
'ap203_configuration_controlled_3d_design_of_mechanical_parts_and_asse
mblies_mim_lf',2004,#624);
#624=APPLICATION_CONTEXT(
'Configuration Controlled 3D Design of Mechanical Parts and Assemblies');
#625=MECHANICAL_CONTEXT('part definition',#624,'mechanical');
#626=PRODUCT('vcr82nit','vcr82nit',$,(#625));
#627=PRESENTATION_STYLE_ASSIGNMENT((#630));
#628=PRESENTATION_STYLE_ASSIGNMENT((#631));
#629=PRESENTATION_STYLE_ASSIGNMENT((#632));
#630=SURFACE_STYLE_USAGE(.BOTH.,#639);
#631=SURFACE_STYLE_USAGE(.BOTH.,#640);
#632=SURFACE_STYLE_USAGE(.BOTH.,#641);
#633=SURFACE_STYLE_RENDERING_WITH_PROPERTIES($,#651,(#636));
#634=SURFACE_STYLE_RENDERING_WITH_PROPERTIES($,#652,(#637));
#635=SURFACE_STYLE_RENDERING_WITH_PROPERTIES($,#653,(#638));
#636=SURFACE_STYLE_TRANSPARENT(0.);
#637=SURFACE_STYLE_TRANSPARENT(0.);
#638=SURFACE_STYLE_TRANSPARENT(0.);
#639=SURFACE_SIDE_STYLE('',(#642,#633));
#640=SURFACE_SIDE_STYLE('',(#643,#634));
#641=SURFACE_SIDE_STYLE('',(#644,#635));
#642=SURFACE_STYLE_FILL_AREA(#645);
#643=SURFACE_STYLE_FILL_AREA(#646);
#644=SURFACE_STYLE_FILL_AREA(#647);
#645=FILL_AREA_STYLE('',(#648));
#646=FILL_AREA_STYLE('',(#649));
#647=FILL_AREA_STYLE('',(#650));
#648=FILL_AREA_STYLE_COLOUR('',#651);
#649=FILL_AREA_STYLE_COLOUR('',#652);
#650=FILL_AREA_STYLE_COLOUR('',#653);
#651=COLOUR_RGB('',0.749019607843137,0.749019607843137,0.749019607843137);
#652=COLOUR_RGB('',0.745098039215686,0.737254901960784,0.729411764705882);
#653=COLOUR_RGB('',0.313725490196078,0.313725490196078,0.313725490196078);
ENDSEC;
END-ISO-10303-21;
