ISO-10303-21;
HEADER;
/* Generated by software containing ST-Developer
 * from STEP Tools, Inc. (www.steptools.com) 
 */

FILE_DESCRIPTION(
/* description */ (''),
/* implementation_level */ '2;1');

FILE_NAME(
/* name */ 'H:\\CAD\\neutral\\3d\\70078\\ffsd_18.stp',
/* time_stamp */ '2018-03-08T12:02:15+01:00',
/* author */ ('leitheu\X\DFer'),
/* organization */ (''),
/* preprocessor_version */ 'ST-DEVELOPER v15.6',
/* originating_system */ 'Autodesk Inventor LT ',
/* authorisation */ '');

FILE_SCHEMA (('AUTOMOTIVE_DESIGN { 1 0 10303 214 3 1 1 }'));
ENDSEC;

DATA;
#10=MECHANICAL_DESIGN_GEOMETRIC_PRESENTATION_REPRESENTATION('',(#16),#266);
#11=DIMENSIONAL_EXPONENTS(0.,0.,0.,0.,0.,0.,0.);
#12=(
CONVERSION_BASED_UNIT('degree',#13)
NAMED_UNIT(#11)
PLANE_ANGLE_UNIT()
);
#13=PLANE_ANGLE_MEASURE_WITH_UNIT(PLANE_ANGLE_MEASURE(0.01745329252),#269);
#14=SHAPE_REPRESENTATION_RELATIONSHIP('SRR','None',#272,#15);
#15=ADVANCED_BREP_SHAPE_REPRESENTATION($,(#17),#265);
#16=STYLED_ITEM('',(#282),#17);
#17=MANIFOLD_SOLID_BREP('Volumenk\X\F6rper1',#150);
#18=CYLINDRICAL_SURFACE('',#157,4.2);
#19=CYLINDRICAL_SURFACE('',#161,4.85);
#20=CYLINDRICAL_SURFACE('',#167,3.65);
#21=CYLINDRICAL_SURFACE('',#175,9.5);
#22=PLANE('',#155);
#23=PLANE('',#165);
#24=PLANE('',#171);
#25=FACE_BOUND('',#50,.T.);
#26=FACE_BOUND('',#52,.T.);
#27=FACE_BOUND('',#54,.T.);
#28=FACE_BOUND('',#56,.T.);
#29=FACE_BOUND('',#58,.T.);
#30=FACE_BOUND('',#60,.T.);
#31=FACE_BOUND('',#62,.T.);
#32=FACE_BOUND('',#64,.T.);
#33=FACE_BOUND('',#66,.T.);
#34=FACE_BOUND('',#68,.T.);
#35=FACE_BOUND('',#70,.T.);
#36=FACE_BOUND('',#72,.T.);
#37=FACE_OUTER_BOUND('',#49,.T.);
#38=FACE_OUTER_BOUND('',#51,.T.);
#39=FACE_OUTER_BOUND('',#53,.T.);
#40=FACE_OUTER_BOUND('',#55,.T.);
#41=FACE_OUTER_BOUND('',#57,.T.);
#42=FACE_OUTER_BOUND('',#59,.T.);
#43=FACE_OUTER_BOUND('',#61,.T.);
#44=FACE_OUTER_BOUND('',#63,.T.);
#45=FACE_OUTER_BOUND('',#65,.T.);
#46=FACE_OUTER_BOUND('',#67,.T.);
#47=FACE_OUTER_BOUND('',#69,.T.);
#48=FACE_OUTER_BOUND('',#71,.T.);
#49=EDGE_LOOP('',(#109));
#50=EDGE_LOOP('',(#110));
#51=EDGE_LOOP('',(#111));
#52=EDGE_LOOP('',(#112));
#53=EDGE_LOOP('',(#113));
#54=EDGE_LOOP('',(#114));
#55=EDGE_LOOP('',(#115));
#56=EDGE_LOOP('',(#116));
#57=EDGE_LOOP('',(#117));
#58=EDGE_LOOP('',(#118));
#59=EDGE_LOOP('',(#119));
#60=EDGE_LOOP('',(#120));
#61=EDGE_LOOP('',(#121));
#62=EDGE_LOOP('',(#122));
#63=EDGE_LOOP('',(#123));
#64=EDGE_LOOP('',(#124));
#65=EDGE_LOOP('',(#125));
#66=EDGE_LOOP('',(#126));
#67=EDGE_LOOP('',(#127));
#68=EDGE_LOOP('',(#128));
#69=EDGE_LOOP('',(#129));
#70=EDGE_LOOP('',(#130));
#71=EDGE_LOOP('',(#131));
#72=EDGE_LOOP('',(#132));
#73=CIRCLE('',#153,9.2);
#74=CIRCLE('',#154,9.5);
#75=CIRCLE('',#156,4.2);
#76=CIRCLE('',#158,4.2);
#77=CIRCLE('',#160,4.85);
#78=CIRCLE('',#162,4.85);
#79=CIRCLE('',#164,4.2);
#80=CIRCLE('',#166,3.65);
#81=CIRCLE('',#168,3.65);
#82=CIRCLE('',#170,3.95);
#83=CIRCLE('',#172,9.2);
#84=CIRCLE('',#174,9.5);
#85=VERTEX_POINT('',#228);
#86=VERTEX_POINT('',#230);
#87=VERTEX_POINT('',#233);
#88=VERTEX_POINT('',#236);
#89=VERTEX_POINT('',#239);
#90=VERTEX_POINT('',#242);
#91=VERTEX_POINT('',#245);
#92=VERTEX_POINT('',#248);
#93=VERTEX_POINT('',#251);
#94=VERTEX_POINT('',#254);
#95=VERTEX_POINT('',#257);
#96=VERTEX_POINT('',#260);
#97=EDGE_CURVE('',#85,#85,#73,.T.);
#98=EDGE_CURVE('',#86,#86,#74,.T.);
#99=EDGE_CURVE('',#87,#87,#75,.T.);
#100=EDGE_CURVE('',#88,#88,#76,.T.);
#101=EDGE_CURVE('',#89,#89,#77,.T.);
#102=EDGE_CURVE('',#90,#90,#78,.T.);
#103=EDGE_CURVE('',#91,#91,#79,.T.);
#104=EDGE_CURVE('',#92,#92,#80,.T.);
#105=EDGE_CURVE('',#93,#93,#81,.T.);
#106=EDGE_CURVE('',#94,#94,#82,.T.);
#107=EDGE_CURVE('',#95,#95,#83,.T.);
#108=EDGE_CURVE('',#96,#96,#84,.T.);
#109=ORIENTED_EDGE('',*,*,#97,.F.);
#110=ORIENTED_EDGE('',*,*,#98,.T.);
#111=ORIENTED_EDGE('',*,*,#97,.T.);
#112=ORIENTED_EDGE('',*,*,#99,.F.);
#113=ORIENTED_EDGE('',*,*,#99,.T.);
#114=ORIENTED_EDGE('',*,*,#100,.F.);
#115=ORIENTED_EDGE('',*,*,#100,.T.);
#116=ORIENTED_EDGE('',*,*,#101,.F.);
#117=ORIENTED_EDGE('',*,*,#101,.T.);
#118=ORIENTED_EDGE('',*,*,#102,.F.);
#119=ORIENTED_EDGE('',*,*,#103,.F.);
#120=ORIENTED_EDGE('',*,*,#102,.T.);
#121=ORIENTED_EDGE('',*,*,#103,.T.);
#122=ORIENTED_EDGE('',*,*,#104,.F.);
#123=ORIENTED_EDGE('',*,*,#105,.F.);
#124=ORIENTED_EDGE('',*,*,#104,.T.);
#125=ORIENTED_EDGE('',*,*,#105,.T.);
#126=ORIENTED_EDGE('',*,*,#106,.F.);
#127=ORIENTED_EDGE('',*,*,#107,.F.);
#128=ORIENTED_EDGE('',*,*,#106,.T.);
#129=ORIENTED_EDGE('',*,*,#107,.T.);
#130=ORIENTED_EDGE('',*,*,#108,.F.);
#131=ORIENTED_EDGE('',*,*,#108,.T.);
#132=ORIENTED_EDGE('',*,*,#98,.F.);
#133=CONICAL_SURFACE('',#152,9.549875,0.785398163397);
#134=CONICAL_SURFACE('',#159,4.8825,0.785398163397);
#135=CONICAL_SURFACE('',#163,4.8825,0.785398163397);
#136=CONICAL_SURFACE('',#169,3.9707375,0.785398163397);
#137=CONICAL_SURFACE('',#173,9.549875,0.785398163397);
#138=ADVANCED_FACE('',(#37,#25),#133,.T.);
#139=ADVANCED_FACE('',(#38,#26),#22,.T.);
#140=ADVANCED_FACE('',(#39,#27),#18,.T.);
#141=ADVANCED_FACE('',(#40,#28),#134,.T.);
#142=ADVANCED_FACE('',(#41,#29),#19,.T.);
#143=ADVANCED_FACE('',(#42,#30),#135,.T.);
#144=ADVANCED_FACE('',(#43,#31),#23,.T.);
#145=ADVANCED_FACE('',(#44,#32),#20,.F.);
#146=ADVANCED_FACE('',(#45,#33),#136,.F.);
#147=ADVANCED_FACE('',(#46,#34),#24,.T.);
#148=ADVANCED_FACE('',(#47,#35),#137,.T.);
#149=ADVANCED_FACE('',(#48,#36),#21,.T.);
#150=CLOSED_SHELL('',(#138,#139,#140,#141,#142,#143,#144,#145,#146,#147,
#148,#149));
#151=AXIS2_PLACEMENT_3D('placement',#226,#176,#177);
#152=AXIS2_PLACEMENT_3D('',#227,#178,#179);
#153=AXIS2_PLACEMENT_3D('',#229,#180,#181);
#154=AXIS2_PLACEMENT_3D('',#231,#182,#183);
#155=AXIS2_PLACEMENT_3D('',#232,#184,#185);
#156=AXIS2_PLACEMENT_3D('',#234,#186,#187);
#157=AXIS2_PLACEMENT_3D('',#235,#188,#189);
#158=AXIS2_PLACEMENT_3D('',#237,#190,#191);
#159=AXIS2_PLACEMENT_3D('',#238,#192,#193);
#160=AXIS2_PLACEMENT_3D('',#240,#194,#195);
#161=AXIS2_PLACEMENT_3D('',#241,#196,#197);
#162=AXIS2_PLACEMENT_3D('',#243,#198,#199);
#163=AXIS2_PLACEMENT_3D('',#244,#200,#201);
#164=AXIS2_PLACEMENT_3D('',#246,#202,#203);
#165=AXIS2_PLACEMENT_3D('',#247,#204,#205);
#166=AXIS2_PLACEMENT_3D('',#249,#206,#207);
#167=AXIS2_PLACEMENT_3D('',#250,#208,#209);
#168=AXIS2_PLACEMENT_3D('',#252,#210,#211);
#169=AXIS2_PLACEMENT_3D('',#253,#212,#213);
#170=AXIS2_PLACEMENT_3D('',#255,#214,#215);
#171=AXIS2_PLACEMENT_3D('',#256,#216,#217);
#172=AXIS2_PLACEMENT_3D('',#258,#218,#219);
#173=AXIS2_PLACEMENT_3D('',#259,#220,#221);
#174=AXIS2_PLACEMENT_3D('',#261,#222,#223);
#175=AXIS2_PLACEMENT_3D('',#262,#224,#225);
#176=DIRECTION('axis',(0.,0.,1.));
#177=DIRECTION('refdir',(1.,0.,0.));
#178=DIRECTION('center_axis',(1.,0.,0.));
#179=DIRECTION('ref_axis',(0.,-1.,-7.120633543192E-17));
#180=DIRECTION('center_axis',(-1.,0.,0.));
#181=DIRECTION('ref_axis',(0.,-1.,3.620292471604E-17));
#182=DIRECTION('center_axis',(-1.,0.,0.));
#183=DIRECTION('ref_axis',(0.,-1.,5.405033146201E-17));
#184=DIRECTION('center_axis',(-1.,0.,0.));
#185=DIRECTION('ref_axis',(0.,0.,1.));
#186=DIRECTION('center_axis',(-1.,0.,0.));
#187=DIRECTION('ref_axis',(0.,-1.,-2.147752875019E-17));
#188=DIRECTION('center_axis',(-1.,0.,0.));
#189=DIRECTION('ref_axis',(0.,-1.,5.782411586589E-17));
#190=DIRECTION('center_axis',(-1.,0.,0.));
#191=DIRECTION('ref_axis',(0.,-1.,-2.147752875019E-17));
#192=DIRECTION('center_axis',(-1.,0.,0.));
#193=DIRECTION('ref_axis',(0.,-1.,4.405646923116E-17));
#194=DIRECTION('center_axis',(-1.,0.,0.));
#195=DIRECTION('ref_axis',(0.,-1.,6.152009028206E-17));
#196=DIRECTION('center_axis',(-1.,1.831295710722E-16,-1.831295710722E-16));
#197=DIRECTION('ref_axis',(-1.831295710722E-16,-1.,7.010428892607E-17));
#198=DIRECTION('center_axis',(-1.,0.,0.));
#199=DIRECTION('ref_axis',(0.,-1.,6.152009028206E-17));
#200=DIRECTION('center_axis',(1.,-1.819105826319E-16,-1.819105826319E-16));
#201=DIRECTION('ref_axis',(-1.819105826319E-16,-1.,-8.242823275507E-17));
#202=DIRECTION('center_axis',(-1.,0.,0.));
#203=DIRECTION('ref_axis',(0.,-1.,-2.147752875019E-17));
#204=DIRECTION('center_axis',(-1.,0.,0.));
#205=DIRECTION('ref_axis',(0.,0.,1.));
#206=DIRECTION('center_axis',(-1.,0.,0.));
#207=DIRECTION('ref_axis',(0.,-1.,-7.604267291953E-18));
#208=DIRECTION('center_axis',(-1.,0.,0.));
#209=DIRECTION('ref_axis',(0.,-1.,3.802133645977E-17));
#210=DIRECTION('center_axis',(-1.,0.,0.));
#211=DIRECTION('ref_axis',(0.,-1.,-7.604267291953E-18));
#212=DIRECTION('center_axis',(1.,3.578895536459E-15,3.578895536459E-15));
#213=DIRECTION('ref_axis',(3.578895536459E-15,-1.,-8.912288689424E-17));
#214=DIRECTION('center_axis',(-1.,0.,0.));
#215=DIRECTION('ref_axis',(0.,-1.,3.337695801879E-17));
#216=DIRECTION('center_axis',(1.,0.,0.));
#217=DIRECTION('ref_axis',(0.,0.,1.));
#218=DIRECTION('center_axis',(-1.,0.,0.));
#219=DIRECTION('ref_axis',(0.,-1.,3.620292471604E-17));
#220=DIRECTION('center_axis',(-1.,7.440335457376E-16,-7.440335457376E-16));
#221=DIRECTION('ref_axis',(-7.440335457376E-16,-1.,1.307871467117E-17));
#222=DIRECTION('center_axis',(-1.,0.,0.));
#223=DIRECTION('ref_axis',(0.,-1.,5.405033146201E-17));
#224=DIRECTION('center_axis',(-1.,0.,0.));
#225=DIRECTION('ref_axis',(0.,-1.,1.227088606165E-16));
#226=CARTESIAN_POINT('',(0.,0.,0.));
#227=CARTESIAN_POINT('Origin',(8.349875,-2.289834988289E-16,6.800116025829E-16));
#228=CARTESIAN_POINT('',(8.,-9.2,0.));
#229=CARTESIAN_POINT('Origin',(8.,-4.024558464266E-16,-3.330669073875E-16));
#230=CARTESIAN_POINT('',(8.3,-9.5,0.));
#231=CARTESIAN_POINT('Origin',(8.3,-1.873501354055E-16,-5.134781488891E-16));
#232=CARTESIAN_POINT('Origin',(8.,1.7763568394E-15,-1.7763568394E-15));
#233=CARTESIAN_POINT('',(8.,-4.2,0.));
#234=CARTESIAN_POINT('Origin',(8.,-3.608224830032E-16,9.020562075079E-17));
#235=CARTESIAN_POINT('Origin',(8.08,-3.469446951954E-16,-2.428612866368E-16));
#236=CARTESIAN_POINT('',(6.4,-4.2,0.));
#237=CARTESIAN_POINT('Origin',(6.4,-3.608224830032E-16,9.020562075079E-17));
#238=CARTESIAN_POINT('Origin',(5.7175,-3.053113317719E-16,-2.151057110211E-16));
#239=CARTESIAN_POINT('',(5.75,-4.85,0.));
#240=CARTESIAN_POINT('Origin',(5.75,-4.302114220422E-16,-2.98372437868E-16));
#241=CARTESIAN_POINT('Origin',(5.93,-2.914335439641E-16,-3.400058012915E-16));
#242=CARTESIAN_POINT('',(2.15,-4.85,0.));
#243=CARTESIAN_POINT('Origin',(2.15,-4.302114220422E-16,-2.98372437868E-16));
#244=CARTESIAN_POINT('Origin',(2.1825,-4.440892098501E-16,4.024558464266E-16));
#245=CARTESIAN_POINT('',(1.5,-4.2,0.));
#246=CARTESIAN_POINT('Origin',(1.5,-3.608224830032E-16,9.020562075079E-17));
#247=CARTESIAN_POINT('Origin',(1.5,0.,-8.881784197001E-16));
#248=CARTESIAN_POINT('',(1.5,-3.65,0.));
#249=CARTESIAN_POINT('Origin',(1.5,4.51028103754E-17,2.775557561563E-17));
#250=CARTESIAN_POINT('Origin',(57.36,-1.422473250301E-16,-1.387778780781E-16));
#251=CARTESIAN_POINT('',(54.7,-3.65,0.));
#252=CARTESIAN_POINT('Origin',(54.7,4.51028103754E-17,2.775557561563E-17));
#253=CARTESIAN_POINT('Origin',(55.0207375,-1.49186218934E-16,3.538835890993E-16));
#254=CARTESIAN_POINT('',(55.,-3.95,0.));
#255=CARTESIAN_POINT('Origin',(55.,-1.040834085586E-17,-1.318389841742E-16));
#256=CARTESIAN_POINT('Origin',(55.,1.7763568394E-15,-1.7763568394E-15));
#257=CARTESIAN_POINT('',(55.,-9.2,0.));
#258=CARTESIAN_POINT('Origin',(55.,-4.024558464266E-16,-3.330669073875E-16));
#259=CARTESIAN_POINT('Origin',(54.650125,-3.469446951954E-16,-1.249000902703E-16));
#260=CARTESIAN_POINT('',(54.7,-9.5,0.));
#261=CARTESIAN_POINT('Origin',(54.7,-1.873501354055E-16,-5.134781488891E-16));
#262=CARTESIAN_POINT('Origin',(57.02,-5.96744875736E-16,-1.165734175856E-15));
#263=UNCERTAINTY_MEASURE_WITH_UNIT(LENGTH_MEASURE(0.01),#267,
'DISTANCE_ACCURACY_VALUE',
'Maximum model space distance between geometric entities at asserted c
onnectivities');
#264=UNCERTAINTY_MEASURE_WITH_UNIT(LENGTH_MEASURE(1.E-6),#267,
'DISTANCE_ACCURACY_VALUE',
'Maximum model space distance between geometric entities at asserted c
onnectivities');
#265=(
GEOMETRIC_REPRESENTATION_CONTEXT(3)
GLOBAL_UNCERTAINTY_ASSIGNED_CONTEXT((#263))
GLOBAL_UNIT_ASSIGNED_CONTEXT((#267,#269,#268))
REPRESENTATION_CONTEXT('','3D')
);
#266=(
GEOMETRIC_REPRESENTATION_CONTEXT(3)
GLOBAL_UNCERTAINTY_ASSIGNED_CONTEXT((#264))
GLOBAL_UNIT_ASSIGNED_CONTEXT((#267,#12,#268))
REPRESENTATION_CONTEXT('','3D')
);
#267=(
LENGTH_UNIT()
NAMED_UNIT(*)
SI_UNIT(.MILLI.,.METRE.)
);
#268=(
NAMED_UNIT(*)
SI_UNIT($,.STERADIAN.)
SOLID_ANGLE_UNIT()
);
#269=(
NAMED_UNIT(*)
PLANE_ANGLE_UNIT()
SI_UNIT($,.RADIAN.)
);
#270=SHAPE_DEFINITION_REPRESENTATION(#271,#272);
#271=PRODUCT_DEFINITION_SHAPE('',$,#274);
#272=SHAPE_REPRESENTATION('',(#151),#265);
#273=PRODUCT_DEFINITION_CONTEXT('part definition',#278,'design');
#274=PRODUCT_DEFINITION('ffsd_18','ffsd_18',#275,#273);
#275=PRODUCT_DEFINITION_FORMATION('',$,#280);
#276=PRODUCT_RELATED_PRODUCT_CATEGORY('ffsd_18','ffsd_18',(#280));
#277=APPLICATION_PROTOCOL_DEFINITION('international standard',
'automotive_design',2009,#278);
#278=APPLICATION_CONTEXT(
'Core Data for Automotive Mechanical Design Process');
#279=PRODUCT_CONTEXT('part definition',#278,'mechanical');
#280=PRODUCT('ffsd_18','ffsd_18',$,(#279));
#281=PRESENTATION_STYLE_ASSIGNMENT((#283));
#282=PRESENTATION_STYLE_ASSIGNMENT((#284));
#283=SURFACE_STYLE_USAGE(.BOTH.,#285);
#284=SURFACE_STYLE_USAGE(.BOTH.,#286);
#285=SURFACE_SIDE_STYLE($,(#287));
#286=SURFACE_SIDE_STYLE($,(#288));
#287=SURFACE_STYLE_FILL_AREA(#289);
#288=SURFACE_STYLE_FILL_AREA(#290);
#289=FILL_AREA_STYLE($,(#291));
#290=FILL_AREA_STYLE($,(#292));
#291=FILL_AREA_STYLE_COLOUR($,#293);
#292=FILL_AREA_STYLE_COLOUR($,#294);
#293=COLOUR_RGB('',0.749019607843137,0.749019607843137,0.749019607843137);
#294=COLOUR_RGB('',0.941176470588235,0.627450980392157,0.431372549019608);
ENDSEC;
END-ISO-10303-21;
