ISO-10303-21;
HEADER;
/* Generated by software containing ST-Developer
 * from STEP Tools, Inc. (www.steptools.com) 
 */

FILE_DESCRIPTION(
/* description */ (''),
/* implementation_level */ '2;1');

FILE_NAME(
/* name */ 'H:\\cad\\neutral\\3d\\70363\\iqsgt_60h6_msv.stp',
/* time_stamp */ '2017-11-03T11:36:37+01:00',
/* author */ ('Hamoud'),
/* organization */ (''),
/* preprocessor_version */ 'ST-DEVELOPER v15.6',
/* originating_system */ 'Autodesk Inventor LT ',
/* authorisation */ '');

FILE_SCHEMA (('AUTOMOTIVE_DESIGN { 1 0 10303 214 3 1 1 }'));
ENDSEC;

DATA;
#10=MECHANICAL_DESIGN_GEOMETRIC_PRESENTATION_REPRESENTATION('',(#13),#443);
#11=SHAPE_REPRESENTATION_RELATIONSHIP('SRR','None',#452,#12);
#12=ADVANCED_BREP_SHAPE_REPRESENTATION($,(#14),#442);
#13=STYLED_ITEM('',(#462),#14);
#14=MANIFOLD_SOLID_BREP('Solid',#246);
#15=CYLINDRICAL_SURFACE('',#253,2.);
#16=CYLINDRICAL_SURFACE('',#263,3.6);
#17=CYLINDRICAL_SURFACE('',#269,3.6);
#18=CYLINDRICAL_SURFACE('',#275,3.6);
#19=CYLINDRICAL_SURFACE('',#279,4.99999999999994);
#20=CYLINDRICAL_SURFACE('',#283,2.99999999999999);
#21=CYLINDRICAL_SURFACE('',#289,3.);
#22=PLANE('',#251);
#23=PLANE('',#255);
#24=PLANE('',#261);
#25=PLANE('',#267);
#26=PLANE('',#273);
#27=PLANE('',#277);
#28=PLANE('',#281);
#29=FACE_BOUND('',#72,.T.);
#30=FACE_BOUND('',#74,.T.);
#31=FACE_BOUND('',#76,.T.);
#32=FACE_BOUND('',#78,.T.);
#33=FACE_BOUND('',#80,.T.);
#34=FACE_BOUND('',#82,.T.);
#35=FACE_BOUND('',#84,.T.);
#36=FACE_BOUND('',#86,.T.);
#37=FACE_BOUND('',#88,.T.);
#38=FACE_BOUND('',#90,.T.);
#39=FACE_BOUND('',#92,.T.);
#40=FACE_BOUND('',#94,.T.);
#41=FACE_BOUND('',#96,.T.);
#42=FACE_BOUND('',#98,.T.);
#43=FACE_BOUND('',#100,.T.);
#44=FACE_BOUND('',#102,.T.);
#45=FACE_BOUND('',#104,.T.);
#46=FACE_BOUND('',#106,.T.);
#47=FACE_BOUND('',#108,.T.);
#48=FACE_BOUND('',#110,.T.);
#49=FACE_BOUND('',#112,.T.);
#50=FACE_OUTER_BOUND('',#71,.T.);
#51=FACE_OUTER_BOUND('',#73,.T.);
#52=FACE_OUTER_BOUND('',#75,.T.);
#53=FACE_OUTER_BOUND('',#77,.T.);
#54=FACE_OUTER_BOUND('',#79,.T.);
#55=FACE_OUTER_BOUND('',#81,.T.);
#56=FACE_OUTER_BOUND('',#83,.T.);
#57=FACE_OUTER_BOUND('',#85,.T.);
#58=FACE_OUTER_BOUND('',#87,.T.);
#59=FACE_OUTER_BOUND('',#89,.T.);
#60=FACE_OUTER_BOUND('',#91,.T.);
#61=FACE_OUTER_BOUND('',#93,.T.);
#62=FACE_OUTER_BOUND('',#95,.T.);
#63=FACE_OUTER_BOUND('',#97,.T.);
#64=FACE_OUTER_BOUND('',#99,.T.);
#65=FACE_OUTER_BOUND('',#101,.T.);
#66=FACE_OUTER_BOUND('',#103,.T.);
#67=FACE_OUTER_BOUND('',#105,.T.);
#68=FACE_OUTER_BOUND('',#107,.T.);
#69=FACE_OUTER_BOUND('',#109,.T.);
#70=FACE_OUTER_BOUND('',#111,.T.);
#71=EDGE_LOOP('',(#176));
#72=EDGE_LOOP('',(#177));
#73=EDGE_LOOP('',(#178));
#74=EDGE_LOOP('',(#179));
#75=EDGE_LOOP('',(#180));
#76=EDGE_LOOP('',(#181));
#77=EDGE_LOOP('',(#182));
#78=EDGE_LOOP('',(#183));
#79=EDGE_LOOP('',(#184));
#80=EDGE_LOOP('',(#185));
#81=EDGE_LOOP('',(#186));
#82=EDGE_LOOP('',(#187));
#83=EDGE_LOOP('',(#188));
#84=EDGE_LOOP('',(#189));
#85=EDGE_LOOP('',(#190));
#86=EDGE_LOOP('',(#191));
#87=EDGE_LOOP('',(#192));
#88=EDGE_LOOP('',(#193));
#89=EDGE_LOOP('',(#194));
#90=EDGE_LOOP('',(#195));
#91=EDGE_LOOP('',(#196));
#92=EDGE_LOOP('',(#197));
#93=EDGE_LOOP('',(#198));
#94=EDGE_LOOP('',(#199));
#95=EDGE_LOOP('',(#200));
#96=EDGE_LOOP('',(#201));
#97=EDGE_LOOP('',(#202));
#98=EDGE_LOOP('',(#203));
#99=EDGE_LOOP('',(#204));
#100=EDGE_LOOP('',(#205));
#101=EDGE_LOOP('',(#206));
#102=EDGE_LOOP('',(#207));
#103=EDGE_LOOP('',(#208));
#104=EDGE_LOOP('',(#209));
#105=EDGE_LOOP('',(#210));
#106=EDGE_LOOP('',(#211));
#107=EDGE_LOOP('',(#212));
#108=EDGE_LOOP('',(#213));
#109=EDGE_LOOP('',(#214));
#110=EDGE_LOOP('',(#215));
#111=EDGE_LOOP('',(#216));
#112=EDGE_LOOP('',(#217));
#113=CIRCLE('',#249,2.42264973081038);
#114=CIRCLE('',#250,3.);
#115=CIRCLE('',#252,2.00000000000001);
#116=CIRCLE('',#254,2.);
#117=CIRCLE('',#256,3.1);
#118=CIRCLE('',#258,3.6);
#119=CIRCLE('',#260,4.1);
#120=CIRCLE('',#262,3.6);
#121=CIRCLE('',#264,3.6);
#122=CIRCLE('',#266,4.1);
#123=CIRCLE('',#268,3.6);
#124=CIRCLE('',#270,3.6);
#125=CIRCLE('',#272,4.1);
#126=CIRCLE('',#274,3.6);
#127=CIRCLE('',#276,3.6);
#128=CIRCLE('',#278,4.99999999999994);
#129=CIRCLE('',#280,4.99999999999994);
#130=CIRCLE('',#282,2.99999999999994);
#131=CIRCLE('',#284,2.99999999999999);
#132=CIRCLE('',#286,2.75000000000001);
#133=CIRCLE('',#288,2.99999999999999);
#134=VERTEX_POINT('',#378);
#135=VERTEX_POINT('',#380);
#136=VERTEX_POINT('',#383);
#137=VERTEX_POINT('',#386);
#138=VERTEX_POINT('',#389);
#139=VERTEX_POINT('',#392);
#140=VERTEX_POINT('',#395);
#141=VERTEX_POINT('',#398);
#142=VERTEX_POINT('',#401);
#143=VERTEX_POINT('',#404);
#144=VERTEX_POINT('',#407);
#145=VERTEX_POINT('',#410);
#146=VERTEX_POINT('',#413);
#147=VERTEX_POINT('',#416);
#148=VERTEX_POINT('',#419);
#149=VERTEX_POINT('',#422);
#150=VERTEX_POINT('',#425);
#151=VERTEX_POINT('',#428);
#152=VERTEX_POINT('',#431);
#153=VERTEX_POINT('',#434);
#154=VERTEX_POINT('',#437);
#155=EDGE_CURVE('',#134,#134,#113,.T.);
#156=EDGE_CURVE('',#135,#135,#114,.T.);
#157=EDGE_CURVE('',#136,#136,#115,.T.);
#158=EDGE_CURVE('',#137,#137,#116,.T.);
#159=EDGE_CURVE('',#138,#138,#117,.T.);
#160=EDGE_CURVE('',#139,#139,#118,.T.);
#161=EDGE_CURVE('',#140,#140,#119,.T.);
#162=EDGE_CURVE('',#141,#141,#120,.T.);
#163=EDGE_CURVE('',#142,#142,#121,.T.);
#164=EDGE_CURVE('',#143,#143,#122,.T.);
#165=EDGE_CURVE('',#144,#144,#123,.T.);
#166=EDGE_CURVE('',#145,#145,#124,.T.);
#167=EDGE_CURVE('',#146,#146,#125,.T.);
#168=EDGE_CURVE('',#147,#147,#126,.T.);
#169=EDGE_CURVE('',#148,#148,#127,.T.);
#170=EDGE_CURVE('',#149,#149,#128,.T.);
#171=EDGE_CURVE('',#150,#150,#129,.T.);
#172=EDGE_CURVE('',#151,#151,#130,.T.);
#173=EDGE_CURVE('',#152,#152,#131,.T.);
#174=EDGE_CURVE('',#153,#153,#132,.T.);
#175=EDGE_CURVE('',#154,#154,#133,.T.);
#176=ORIENTED_EDGE('',*,*,#155,.F.);
#177=ORIENTED_EDGE('',*,*,#156,.T.);
#178=ORIENTED_EDGE('',*,*,#155,.T.);
#179=ORIENTED_EDGE('',*,*,#157,.F.);
#180=ORIENTED_EDGE('',*,*,#158,.F.);
#181=ORIENTED_EDGE('',*,*,#157,.T.);
#182=ORIENTED_EDGE('',*,*,#159,.F.);
#183=ORIENTED_EDGE('',*,*,#158,.T.);
#184=ORIENTED_EDGE('',*,*,#160,.F.);
#185=ORIENTED_EDGE('',*,*,#159,.T.);
#186=ORIENTED_EDGE('',*,*,#161,.F.);
#187=ORIENTED_EDGE('',*,*,#160,.T.);
#188=ORIENTED_EDGE('',*,*,#161,.T.);
#189=ORIENTED_EDGE('',*,*,#162,.F.);
#190=ORIENTED_EDGE('',*,*,#163,.F.);
#191=ORIENTED_EDGE('',*,*,#162,.T.);
#192=ORIENTED_EDGE('',*,*,#164,.F.);
#193=ORIENTED_EDGE('',*,*,#163,.T.);
#194=ORIENTED_EDGE('',*,*,#164,.T.);
#195=ORIENTED_EDGE('',*,*,#165,.F.);
#196=ORIENTED_EDGE('',*,*,#166,.F.);
#197=ORIENTED_EDGE('',*,*,#165,.T.);
#198=ORIENTED_EDGE('',*,*,#167,.F.);
#199=ORIENTED_EDGE('',*,*,#166,.T.);
#200=ORIENTED_EDGE('',*,*,#167,.T.);
#201=ORIENTED_EDGE('',*,*,#168,.F.);
#202=ORIENTED_EDGE('',*,*,#169,.F.);
#203=ORIENTED_EDGE('',*,*,#168,.T.);
#204=ORIENTED_EDGE('',*,*,#170,.F.);
#205=ORIENTED_EDGE('',*,*,#169,.T.);
#206=ORIENTED_EDGE('',*,*,#171,.F.);
#207=ORIENTED_EDGE('',*,*,#170,.T.);
#208=ORIENTED_EDGE('',*,*,#171,.T.);
#209=ORIENTED_EDGE('',*,*,#172,.F.);
#210=ORIENTED_EDGE('',*,*,#173,.F.);
#211=ORIENTED_EDGE('',*,*,#172,.T.);
#212=ORIENTED_EDGE('',*,*,#174,.F.);
#213=ORIENTED_EDGE('',*,*,#173,.T.);
#214=ORIENTED_EDGE('',*,*,#175,.F.);
#215=ORIENTED_EDGE('',*,*,#174,.T.);
#216=ORIENTED_EDGE('',*,*,#156,.F.);
#217=ORIENTED_EDGE('',*,*,#175,.T.);
#218=CONICAL_SURFACE('',#248,3.00000000000001,30.);
#219=CONICAL_SURFACE('',#257,3.6,5.71059313749965);
#220=CONICAL_SURFACE('',#259,4.1,16.3895403340347);
#221=CONICAL_SURFACE('',#265,4.1,15.0000000000001);
#222=CONICAL_SURFACE('',#271,4.1,15.);
#223=CONICAL_SURFACE('',#285,2.99999999999999,44.9999999999999);
#224=CONICAL_SURFACE('',#287,2.99999999999999,45.0000000000002);
#225=ADVANCED_FACE('',(#50,#29),#218,.T.);
#226=ADVANCED_FACE('',(#51,#30),#22,.T.);
#227=ADVANCED_FACE('',(#52,#31),#15,.F.);
#228=ADVANCED_FACE('',(#53,#32),#23,.T.);
#229=ADVANCED_FACE('',(#54,#33),#219,.T.);
#230=ADVANCED_FACE('',(#55,#34),#220,.T.);
#231=ADVANCED_FACE('',(#56,#35),#24,.T.);
#232=ADVANCED_FACE('',(#57,#36),#16,.T.);
#233=ADVANCED_FACE('',(#58,#37),#221,.T.);
#234=ADVANCED_FACE('',(#59,#38),#25,.T.);
#235=ADVANCED_FACE('',(#60,#39),#17,.T.);
#236=ADVANCED_FACE('',(#61,#40),#222,.T.);
#237=ADVANCED_FACE('',(#62,#41),#26,.T.);
#238=ADVANCED_FACE('',(#63,#42),#18,.T.);
#239=ADVANCED_FACE('',(#64,#43),#27,.T.);
#240=ADVANCED_FACE('',(#65,#44),#19,.T.);
#241=ADVANCED_FACE('',(#66,#45),#28,.T.);
#242=ADVANCED_FACE('',(#67,#46),#20,.T.);
#243=ADVANCED_FACE('',(#68,#47),#223,.T.);
#244=ADVANCED_FACE('',(#69,#48),#224,.T.);
#245=ADVANCED_FACE('',(#70,#49),#21,.T.);
#246=CLOSED_SHELL('',(#225,#226,#227,#228,#229,#230,#231,#232,#233,#234,
#235,#236,#237,#238,#239,#240,#241,#242,#243,#244,#245));
#247=AXIS2_PLACEMENT_3D('placement',#376,#290,#291);
#248=AXIS2_PLACEMENT_3D('',#377,#292,#293);
#249=AXIS2_PLACEMENT_3D('',#379,#294,#295);
#250=AXIS2_PLACEMENT_3D('',#381,#296,#297);
#251=AXIS2_PLACEMENT_3D('',#382,#298,#299);
#252=AXIS2_PLACEMENT_3D('',#384,#300,#301);
#253=AXIS2_PLACEMENT_3D('',#385,#302,#303);
#254=AXIS2_PLACEMENT_3D('',#387,#304,#305);
#255=AXIS2_PLACEMENT_3D('',#388,#306,#307);
#256=AXIS2_PLACEMENT_3D('',#390,#308,#309);
#257=AXIS2_PLACEMENT_3D('',#391,#310,#311);
#258=AXIS2_PLACEMENT_3D('',#393,#312,#313);
#259=AXIS2_PLACEMENT_3D('',#394,#314,#315);
#260=AXIS2_PLACEMENT_3D('',#396,#316,#317);
#261=AXIS2_PLACEMENT_3D('',#397,#318,#319);
#262=AXIS2_PLACEMENT_3D('',#399,#320,#321);
#263=AXIS2_PLACEMENT_3D('',#400,#322,#323);
#264=AXIS2_PLACEMENT_3D('',#402,#324,#325);
#265=AXIS2_PLACEMENT_3D('',#403,#326,#327);
#266=AXIS2_PLACEMENT_3D('',#405,#328,#329);
#267=AXIS2_PLACEMENT_3D('',#406,#330,#331);
#268=AXIS2_PLACEMENT_3D('',#408,#332,#333);
#269=AXIS2_PLACEMENT_3D('',#409,#334,#335);
#270=AXIS2_PLACEMENT_3D('',#411,#336,#337);
#271=AXIS2_PLACEMENT_3D('',#412,#338,#339);
#272=AXIS2_PLACEMENT_3D('',#414,#340,#341);
#273=AXIS2_PLACEMENT_3D('',#415,#342,#343);
#274=AXIS2_PLACEMENT_3D('',#417,#344,#345);
#275=AXIS2_PLACEMENT_3D('',#418,#346,#347);
#276=AXIS2_PLACEMENT_3D('',#420,#348,#349);
#277=AXIS2_PLACEMENT_3D('',#421,#350,#351);
#278=AXIS2_PLACEMENT_3D('',#423,#352,#353);
#279=AXIS2_PLACEMENT_3D('',#424,#354,#355);
#280=AXIS2_PLACEMENT_3D('',#426,#356,#357);
#281=AXIS2_PLACEMENT_3D('',#427,#358,#359);
#282=AXIS2_PLACEMENT_3D('',#429,#360,#361);
#283=AXIS2_PLACEMENT_3D('',#430,#362,#363);
#284=AXIS2_PLACEMENT_3D('',#432,#364,#365);
#285=AXIS2_PLACEMENT_3D('',#433,#366,#367);
#286=AXIS2_PLACEMENT_3D('',#435,#368,#369);
#287=AXIS2_PLACEMENT_3D('',#436,#370,#371);
#288=AXIS2_PLACEMENT_3D('',#438,#372,#373);
#289=AXIS2_PLACEMENT_3D('',#439,#374,#375);
#290=DIRECTION('axis',(0.,0.,1.));
#291=DIRECTION('refdir',(1.,0.,0.));
#292=DIRECTION('center_axis',(0.,0.,1.));
#293=DIRECTION('ref_axis',(1.,0.,0.));
#294=DIRECTION('center_axis',(7.33228917415996E-16,0.,-1.));
#295=DIRECTION('ref_axis',(1.,0.,7.33228917415996E-16));
#296=DIRECTION('center_axis',(-1.1842378929335E-15,0.,-1.));
#297=DIRECTION('ref_axis',(1.,0.,-1.1842378929335E-15));
#298=DIRECTION('center_axis',(-9.7334621337E-17,0.,-1.));
#299=DIRECTION('ref_axis',(-1.,0.,0.));
#300=DIRECTION('center_axis',(0.,0.,-1.));
#301=DIRECTION('ref_axis',(1.,0.,0.));
#302=DIRECTION('center_axis',(-9.7334621337E-17,0.,-1.));
#303=DIRECTION('ref_axis',(1.,0.,-9.7334621337E-17));
#304=DIRECTION('center_axis',(0.,0.,-1.));
#305=DIRECTION('ref_axis',(1.,0.,0.));
#306=DIRECTION('center_axis',(9.7334621337E-17,0.,1.));
#307=DIRECTION('ref_axis',(1.,0.,0.));
#308=DIRECTION('center_axis',(0.,0.,-1.));
#309=DIRECTION('ref_axis',(1.,0.,0.));
#310=DIRECTION('center_axis',(-9.86864910777918E-17,0.,-1.));
#311=DIRECTION('ref_axis',(1.,0.,-9.86864910777918E-17));
#312=DIRECTION('center_axis',(0.,0.,-1.));
#313=DIRECTION('ref_axis',(1.,0.,0.));
#314=DIRECTION('center_axis',(0.,0.,-1.));
#315=DIRECTION('ref_axis',(1.,0.,0.));
#316=DIRECTION('center_axis',(0.,0.,-1.));
#317=DIRECTION('ref_axis',(1.,0.,0.));
#318=DIRECTION('center_axis',(-9.7334621337E-17,0.,-1.));
#319=DIRECTION('ref_axis',(-1.,0.,0.));
#320=DIRECTION('center_axis',(0.,0.,-1.));
#321=DIRECTION('ref_axis',(1.,0.,0.));
#322=DIRECTION('center_axis',(0.,0.,1.));
#323=DIRECTION('ref_axis',(1.,0.,0.));
#324=DIRECTION('center_axis',(0.,0.,-1.));
#325=DIRECTION('ref_axis',(1.,0.,0.));
#326=DIRECTION('center_axis',(0.,0.,-1.));
#327=DIRECTION('ref_axis',(1.,0.,0.));
#328=DIRECTION('center_axis',(0.,0.,-1.));
#329=DIRECTION('ref_axis',(1.,0.,0.));
#330=DIRECTION('center_axis',(-9.7334621337E-17,0.,-1.));
#331=DIRECTION('ref_axis',(-1.,0.,0.));
#332=DIRECTION('center_axis',(0.,0.,-1.));
#333=DIRECTION('ref_axis',(1.,0.,0.));
#334=DIRECTION('center_axis',(0.,0.,1.));
#335=DIRECTION('ref_axis',(1.,0.,0.));
#336=DIRECTION('center_axis',(0.,0.,-1.));
#337=DIRECTION('ref_axis',(1.,0.,0.));
#338=DIRECTION('center_axis',(0.,0.,-1.));
#339=DIRECTION('ref_axis',(1.,0.,0.));
#340=DIRECTION('center_axis',(0.,0.,-1.));
#341=DIRECTION('ref_axis',(1.,0.,0.));
#342=DIRECTION('center_axis',(-9.7334621337E-17,0.,-1.));
#343=DIRECTION('ref_axis',(-1.,0.,0.));
#344=DIRECTION('center_axis',(0.,0.,-1.));
#345=DIRECTION('ref_axis',(1.,0.,0.));
#346=DIRECTION('center_axis',(0.,0.,1.));
#347=DIRECTION('ref_axis',(1.,0.,0.));
#348=DIRECTION('center_axis',(0.,0.,-1.));
#349=DIRECTION('ref_axis',(1.,0.,0.));
#350=DIRECTION('center_axis',(9.7334621337E-17,0.,1.));
#351=DIRECTION('ref_axis',(1.,0.,0.));
#352=DIRECTION('center_axis',(0.,0.,-1.));
#353=DIRECTION('ref_axis',(1.,0.,0.));
#354=DIRECTION('center_axis',(2.36847578586701E-15,0.,1.));
#355=DIRECTION('ref_axis',(1.,0.,-2.36847578586701E-15));
#356=DIRECTION('center_axis',(0.,0.,-1.));
#357=DIRECTION('ref_axis',(1.,0.,0.));
#358=DIRECTION('center_axis',(-9.7334621337E-17,0.,-1.));
#359=DIRECTION('ref_axis',(-1.,0.,0.));
#360=DIRECTION('center_axis',(0.,0.,-1.));
#361=DIRECTION('ref_axis',(1.,0.,0.));
#362=DIRECTION('center_axis',(0.,0.,1.));
#363=DIRECTION('ref_axis',(1.,0.,0.));
#364=DIRECTION('center_axis',(0.,0.,-1.));
#365=DIRECTION('ref_axis',(1.,0.,0.));
#366=DIRECTION('center_axis',(0.,0.,1.));
#367=DIRECTION('ref_axis',(1.,0.,0.));
#368=DIRECTION('center_axis',(0.,0.,-1.));
#369=DIRECTION('ref_axis',(1.,0.,0.));
#370=DIRECTION('center_axis',(0.,0.,-1.));
#371=DIRECTION('ref_axis',(1.,0.,0.));
#372=DIRECTION('center_axis',(5.92118946466753E-16,0.,-1.));
#373=DIRECTION('ref_axis',(1.,0.,5.92118946466753E-16));
#374=DIRECTION('center_axis',(0.,0.,1.));
#375=DIRECTION('ref_axis',(1.,0.,0.));
#376=CARTESIAN_POINT('',(0.,0.,0.));
#377=CARTESIAN_POINT('Origin',(23.98815808,15.53856,11.21698104));
#378=CARTESIAN_POINT('',(26.4108078108104,15.53856,10.21698104));
#379=CARTESIAN_POINT('Origin',(23.98815808,15.53856,10.21698104));
#380=CARTESIAN_POINT('',(26.98815808,15.53856,11.21698104));
#381=CARTESIAN_POINT('Origin',(23.98815808,15.53856,11.21698104));
#382=CARTESIAN_POINT('Origin',(25.98815808,15.53856,10.21698104));
#383=CARTESIAN_POINT('',(25.98815808,15.53856,10.21698104));
#384=CARTESIAN_POINT('Origin',(23.98815808,15.53856,10.21698104));
#385=CARTESIAN_POINT('Origin',(23.98815808,15.53856,46.71698104));
#386=CARTESIAN_POINT('',(25.98815808,15.53856,46.71698104));
#387=CARTESIAN_POINT('Origin',(23.98815808,15.53856,46.71698104));
#388=CARTESIAN_POINT('Origin',(27.08815808,15.53856,46.71698104));
#389=CARTESIAN_POINT('',(27.08815808,15.53856,46.71698104));
#390=CARTESIAN_POINT('Origin',(23.98815808,15.53856,46.71698104));
#391=CARTESIAN_POINT('Origin',(23.98815808,15.53856,41.71698104));
#392=CARTESIAN_POINT('',(27.58815808,15.53856,41.71698104));
#393=CARTESIAN_POINT('Origin',(23.98815808,15.53856,41.71698104));
#394=CARTESIAN_POINT('Origin',(23.98815808,15.53856,40.01698104));
#395=CARTESIAN_POINT('',(28.08815808,15.53856,40.01698104));
#396=CARTESIAN_POINT('Origin',(23.98815808,15.53856,40.01698104));
#397=CARTESIAN_POINT('Origin',(27.58815808,15.53856,40.01698104));
#398=CARTESIAN_POINT('',(27.58815808,15.53856,40.01698104));
#399=CARTESIAN_POINT('Origin',(23.98815808,15.53856,40.01698104));
#400=CARTESIAN_POINT('Origin',(23.98815808,15.53856,38.3830064437844));
#401=CARTESIAN_POINT('',(27.58815808,15.53856,38.3830064437844));
#402=CARTESIAN_POINT('Origin',(23.98815808,15.53856,38.3830064437844));
#403=CARTESIAN_POINT('Origin',(23.98815808,15.53856,36.51698104));
#404=CARTESIAN_POINT('',(28.08815808,15.53856,36.51698104));
#405=CARTESIAN_POINT('Origin',(23.98815808,15.53856,36.51698104));
#406=CARTESIAN_POINT('Origin',(27.58815808,15.53856,36.51698104));
#407=CARTESIAN_POINT('',(27.58815808,15.53856,36.51698104));
#408=CARTESIAN_POINT('Origin',(23.98815808,15.53856,36.51698104));
#409=CARTESIAN_POINT('Origin',(23.98815808,15.53856,34.9830064437844));
#410=CARTESIAN_POINT('',(27.58815808,15.53856,34.9830064437844));
#411=CARTESIAN_POINT('Origin',(23.98815808,15.53856,34.9830064437844));
#412=CARTESIAN_POINT('Origin',(23.98815808,15.53856,33.11698104));
#413=CARTESIAN_POINT('',(28.08815808,15.53856,33.11698104));
#414=CARTESIAN_POINT('Origin',(23.98815808,15.53856,33.11698104));
#415=CARTESIAN_POINT('Origin',(27.58815808,15.53856,33.11698104));
#416=CARTESIAN_POINT('',(27.58815808,15.53856,33.11698104));
#417=CARTESIAN_POINT('Origin',(23.98815808,15.53856,33.11698104));
#418=CARTESIAN_POINT('Origin',(23.98815808,15.53856,29.71698104));
#419=CARTESIAN_POINT('',(27.58815808,15.53856,29.71698104));
#420=CARTESIAN_POINT('Origin',(23.98815808,15.53856,29.71698104));
#421=CARTESIAN_POINT('Origin',(28.9881580799999,15.53856,29.71698104));
#422=CARTESIAN_POINT('',(28.9881580799999,15.53856,29.71698104));
#423=CARTESIAN_POINT('Origin',(23.98815808,15.53856,29.71698104));
#424=CARTESIAN_POINT('Origin',(23.98815808,15.53856,28.21698104));
#425=CARTESIAN_POINT('',(28.9881580799999,15.53856,28.21698104));
#426=CARTESIAN_POINT('Origin',(23.98815808,15.53856,28.21698104));
#427=CARTESIAN_POINT('Origin',(26.9881580799999,15.53856,28.21698104));
#428=CARTESIAN_POINT('',(26.9881580799999,15.53856,28.21698104));
#429=CARTESIAN_POINT('Origin',(23.98815808,15.53856,28.21698104));
#430=CARTESIAN_POINT('Origin',(23.98815808,15.53856,16.26698104));
#431=CARTESIAN_POINT('',(26.98815808,15.53856,16.26698104));
#432=CARTESIAN_POINT('Origin',(23.98815808,15.53856,16.26698104));
#433=CARTESIAN_POINT('Origin',(23.98815808,15.53856,16.26698104));
#434=CARTESIAN_POINT('',(26.73815808,15.53856,16.01698104));
#435=CARTESIAN_POINT('Origin',(23.98815808,15.53856,16.01698104));
#436=CARTESIAN_POINT('Origin',(23.98815808,15.53856,15.76698104));
#437=CARTESIAN_POINT('',(26.98815808,15.53856,15.76698104));
#438=CARTESIAN_POINT('Origin',(23.98815808,15.53856,15.76698104));
#439=CARTESIAN_POINT('Origin',(23.98815808,15.53856,11.21698104));
#440=UNCERTAINTY_MEASURE_WITH_UNIT(LENGTH_MEASURE(0.01),#444,
'DISTANCE_ACCURACY_VALUE',
'Maximum model space distance between geometric entities at asserted c
onnectivities');
#441=UNCERTAINTY_MEASURE_WITH_UNIT(LENGTH_MEASURE(1.E-6),#444,
'DISTANCE_ACCURACY_VALUE',
'Maximum model space distance between geometric entities at asserted c
onnectivities');
#442=(
GEOMETRIC_REPRESENTATION_CONTEXT(3)
GLOBAL_UNCERTAINTY_ASSIGNED_CONTEXT((#440))
GLOBAL_UNIT_ASSIGNED_CONTEXT((#444,#447,#445))
REPRESENTATION_CONTEXT('','3D')
);
#443=(
GEOMETRIC_REPRESENTATION_CONTEXT(3)
GLOBAL_UNCERTAINTY_ASSIGNED_CONTEXT((#441))
GLOBAL_UNIT_ASSIGNED_CONTEXT((#444,#447,#445))
REPRESENTATION_CONTEXT('','3D')
);
#444=(
LENGTH_UNIT()
NAMED_UNIT(*)
SI_UNIT(.MILLI.,.METRE.)
);
#445=(
NAMED_UNIT(*)
SI_UNIT($,.STERADIAN.)
SOLID_ANGLE_UNIT()
);
#446=DIMENSIONAL_EXPONENTS(0.,0.,0.,0.,0.,0.,0.);
#447=(
CONVERSION_BASED_UNIT('degree',#449)
NAMED_UNIT(#446)
PLANE_ANGLE_UNIT()
);
#448=(
NAMED_UNIT(*)
PLANE_ANGLE_UNIT()
SI_UNIT($,.RADIAN.)
);
#449=PLANE_ANGLE_MEASURE_WITH_UNIT(PLANE_ANGLE_MEASURE(0.01745329252),#448);
#450=SHAPE_DEFINITION_REPRESENTATION(#451,#452);
#451=PRODUCT_DEFINITION_SHAPE('',$,#454);
#452=SHAPE_REPRESENTATION('',(#247),#442);
#453=PRODUCT_DEFINITION_CONTEXT('part definition',#458,'design');
#454=PRODUCT_DEFINITION('iqsgt_60h6_msv','iqsgt_60h6_msv',#455,#453);
#455=PRODUCT_DEFINITION_FORMATION('',$,#460);
#456=PRODUCT_RELATED_PRODUCT_CATEGORY('iqsgt_60h6_msv','iqsgt_60h6_msv',
(#460));
#457=APPLICATION_PROTOCOL_DEFINITION('international standard',
'automotive_design',2009,#458);
#458=APPLICATION_CONTEXT(
'Core Data for Automotive Mechanical Design Process');
#459=PRODUCT_CONTEXT('part definition',#458,'mechanical');
#460=PRODUCT('iqsgt_60h6_msv','iqsgt_60h6_msv',$,(#459));
#461=PRESENTATION_STYLE_ASSIGNMENT((#463));
#462=PRESENTATION_STYLE_ASSIGNMENT((#464));
#463=SURFACE_STYLE_USAGE(.BOTH.,#465);
#464=SURFACE_STYLE_USAGE(.BOTH.,#466);
#465=SURFACE_SIDE_STYLE($,(#467));
#466=SURFACE_SIDE_STYLE($,(#468));
#467=SURFACE_STYLE_FILL_AREA(#469);
#468=SURFACE_STYLE_FILL_AREA(#470);
#469=FILL_AREA_STYLE($,(#471));
#470=FILL_AREA_STYLE($,(#472));
#471=FILL_AREA_STYLE_COLOUR($,#473);
#472=FILL_AREA_STYLE_COLOUR($,#474);
#473=COLOUR_RGB('',0.749019607843137,0.749019607843137,0.749019607843137);
#474=COLOUR_RGB('',0.831372549019608,0.792156862745098,0.819607843137255);
ENDSEC;
END-ISO-10303-21;
