ISO-10303-21;
HEADER;
/* Generated by software containing ST-Developer
 * from STEP Tools, Inc. (www.steptools.com) 
 */

FILE_DESCRIPTION(
/* description */ (''),
/* implementation_level */ '2;1');

FILE_NAME(
/* name */ 'H:\\cad\\neutral\\3d\\72644\\u_12-la.stp',
/* time_stamp */ '2018-11-14T14:18:49+01:00',
/* author */ ('leitheu\X\DFer'),
/* organization */ (''),
/* preprocessor_version */ 'ST-DEVELOPER v15.6',
/* originating_system */ 'Autodesk Inventor LT ',
/* authorisation */ '');

FILE_SCHEMA (('AUTOMOTIVE_DESIGN { 1 0 10303 214 3 1 1 }'));
ENDSEC;

DATA;
#10=MECHANICAL_DESIGN_GEOMETRIC_PRESENTATION_REPRESENTATION('',(#16,#17,
#18),#331);
#11=SHAPE_REPRESENTATION_RELATIONSHIP('SRR','None',#340,#12);
#12=ADVANCED_BREP_SHAPE_REPRESENTATION($,(#13),#330);
#13=MANIFOLD_SOLID_BREP('Volumenk\X\F6rper1',#184);
#14=SPHERICAL_SURFACE('',#197,12.);
#15=SPHERICAL_SURFACE('',#198,8.80000000000001);
#16=STYLED_ITEM('',(#350),#172);
#17=STYLED_ITEM('',(#350),#173);
#18=STYLED_ITEM('',(#349),#13);
#19=CYLINDRICAL_SURFACE('',#191,11.995);
#20=CYLINDRICAL_SURFACE('',#195,12.);
#21=CYLINDRICAL_SURFACE('',#200,8.8);
#22=CYLINDRICAL_SURFACE('',#204,9.5);
#23=CYLINDRICAL_SURFACE('',#208,8.8);
#24=CYLINDRICAL_SURFACE('',#212,9.25);
#25=CYLINDRICAL_SURFACE('',#216,10.4775);
#26=CONICAL_SURFACE('',#189,11.495,45.);
#27=FACE_BOUND('',#58,.T.);
#28=FACE_BOUND('',#60,.T.);
#29=FACE_BOUND('',#62,.T.);
#30=FACE_BOUND('',#64,.T.);
#31=FACE_BOUND('',#66,.T.);
#32=FACE_BOUND('',#70,.T.);
#33=FACE_BOUND('',#72,.T.);
#34=FACE_BOUND('',#74,.T.);
#35=FACE_BOUND('',#76,.T.);
#36=FACE_BOUND('',#78,.T.);
#37=FACE_BOUND('',#80,.T.);
#38=FACE_BOUND('',#82,.T.);
#39=FACE_BOUND('',#84,.T.);
#40=FACE_BOUND('',#86,.T.);
#41=FACE_OUTER_BOUND('',#57,.T.);
#42=FACE_OUTER_BOUND('',#59,.T.);
#43=FACE_OUTER_BOUND('',#61,.T.);
#44=FACE_OUTER_BOUND('',#63,.T.);
#45=FACE_OUTER_BOUND('',#65,.T.);
#46=FACE_OUTER_BOUND('',#67,.T.);
#47=FACE_OUTER_BOUND('',#68,.T.);
#48=FACE_OUTER_BOUND('',#69,.T.);
#49=FACE_OUTER_BOUND('',#71,.T.);
#50=FACE_OUTER_BOUND('',#73,.T.);
#51=FACE_OUTER_BOUND('',#75,.T.);
#52=FACE_OUTER_BOUND('',#77,.T.);
#53=FACE_OUTER_BOUND('',#79,.T.);
#54=FACE_OUTER_BOUND('',#81,.T.);
#55=FACE_OUTER_BOUND('',#83,.T.);
#56=FACE_OUTER_BOUND('',#85,.T.);
#57=EDGE_LOOP('',(#132));
#58=EDGE_LOOP('',(#133));
#59=EDGE_LOOP('',(#134));
#60=EDGE_LOOP('',(#135));
#61=EDGE_LOOP('',(#136));
#62=EDGE_LOOP('',(#137));
#63=EDGE_LOOP('',(#138));
#64=EDGE_LOOP('',(#139));
#65=EDGE_LOOP('',(#140));
#66=EDGE_LOOP('',(#141));
#67=EDGE_LOOP('',(#142));
#68=EDGE_LOOP('',(#143));
#69=EDGE_LOOP('',(#144));
#70=EDGE_LOOP('',(#145));
#71=EDGE_LOOP('',(#146));
#72=EDGE_LOOP('',(#147));
#73=EDGE_LOOP('',(#148));
#74=EDGE_LOOP('',(#149));
#75=EDGE_LOOP('',(#150));
#76=EDGE_LOOP('',(#151));
#77=EDGE_LOOP('',(#152));
#78=EDGE_LOOP('',(#153));
#79=EDGE_LOOP('',(#154));
#80=EDGE_LOOP('',(#155));
#81=EDGE_LOOP('',(#156));
#82=EDGE_LOOP('',(#157));
#83=EDGE_LOOP('',(#158));
#84=EDGE_LOOP('',(#159));
#85=EDGE_LOOP('',(#160));
#86=EDGE_LOOP('',(#161));
#87=CIRCLE('',#187,10.995);
#88=CIRCLE('',#188,10.4775);
#89=CIRCLE('',#190,11.995);
#90=CIRCLE('',#192,11.995);
#91=CIRCLE('',#194,12.);
#92=CIRCLE('',#196,12.);
#93=CIRCLE('',#199,8.80000000000001);
#94=CIRCLE('',#201,8.8);
#95=CIRCLE('',#203,9.5);
#96=CIRCLE('',#205,9.5);
#97=CIRCLE('',#207,8.8);
#98=CIRCLE('',#209,8.8);
#99=CIRCLE('',#211,9.25);
#100=CIRCLE('',#213,9.25);
#101=CIRCLE('',#215,10.4775);
#102=VERTEX_POINT('',#283);
#103=VERTEX_POINT('',#285);
#104=VERTEX_POINT('',#288);
#105=VERTEX_POINT('',#291);
#106=VERTEX_POINT('',#294);
#107=VERTEX_POINT('',#297);
#108=VERTEX_POINT('',#301);
#109=VERTEX_POINT('',#304);
#110=VERTEX_POINT('',#307);
#111=VERTEX_POINT('',#310);
#112=VERTEX_POINT('',#313);
#113=VERTEX_POINT('',#316);
#114=VERTEX_POINT('',#319);
#115=VERTEX_POINT('',#322);
#116=VERTEX_POINT('',#325);
#117=EDGE_CURVE('',#102,#102,#87,.T.);
#118=EDGE_CURVE('',#103,#103,#88,.T.);
#119=EDGE_CURVE('',#104,#104,#89,.T.);
#120=EDGE_CURVE('',#105,#105,#90,.T.);
#121=EDGE_CURVE('',#106,#106,#91,.T.);
#122=EDGE_CURVE('',#107,#107,#92,.T.);
#123=EDGE_CURVE('',#108,#108,#93,.T.);
#124=EDGE_CURVE('',#109,#109,#94,.T.);
#125=EDGE_CURVE('',#110,#110,#95,.T.);
#126=EDGE_CURVE('',#111,#111,#96,.T.);
#127=EDGE_CURVE('',#112,#112,#97,.T.);
#128=EDGE_CURVE('',#113,#113,#98,.T.);
#129=EDGE_CURVE('',#114,#114,#99,.T.);
#130=EDGE_CURVE('',#115,#115,#100,.T.);
#131=EDGE_CURVE('',#116,#116,#101,.T.);
#132=ORIENTED_EDGE('',*,*,#117,.F.);
#133=ORIENTED_EDGE('',*,*,#118,.T.);
#134=ORIENTED_EDGE('',*,*,#117,.T.);
#135=ORIENTED_EDGE('',*,*,#119,.F.);
#136=ORIENTED_EDGE('',*,*,#119,.T.);
#137=ORIENTED_EDGE('',*,*,#120,.F.);
#138=ORIENTED_EDGE('',*,*,#121,.F.);
#139=ORIENTED_EDGE('',*,*,#120,.T.);
#140=ORIENTED_EDGE('',*,*,#121,.T.);
#141=ORIENTED_EDGE('',*,*,#122,.F.);
#142=ORIENTED_EDGE('',*,*,#122,.T.);
#143=ORIENTED_EDGE('',*,*,#123,.F.);
#144=ORIENTED_EDGE('',*,*,#123,.T.);
#145=ORIENTED_EDGE('',*,*,#124,.F.);
#146=ORIENTED_EDGE('',*,*,#125,.F.);
#147=ORIENTED_EDGE('',*,*,#124,.T.);
#148=ORIENTED_EDGE('',*,*,#125,.T.);
#149=ORIENTED_EDGE('',*,*,#126,.F.);
#150=ORIENTED_EDGE('',*,*,#126,.T.);
#151=ORIENTED_EDGE('',*,*,#127,.F.);
#152=ORIENTED_EDGE('',*,*,#127,.T.);
#153=ORIENTED_EDGE('',*,*,#128,.F.);
#154=ORIENTED_EDGE('',*,*,#129,.F.);
#155=ORIENTED_EDGE('',*,*,#128,.T.);
#156=ORIENTED_EDGE('',*,*,#129,.T.);
#157=ORIENTED_EDGE('',*,*,#130,.F.);
#158=ORIENTED_EDGE('',*,*,#131,.F.);
#159=ORIENTED_EDGE('',*,*,#130,.T.);
#160=ORIENTED_EDGE('',*,*,#131,.T.);
#161=ORIENTED_EDGE('',*,*,#118,.F.);
#162=PLANE('',#186);
#163=PLANE('',#193);
#164=PLANE('',#202);
#165=PLANE('',#206);
#166=PLANE('',#210);
#167=PLANE('',#214);
#168=ADVANCED_FACE('',(#41,#27),#162,.T.);
#169=ADVANCED_FACE('',(#42,#28),#26,.T.);
#170=ADVANCED_FACE('',(#43,#29),#19,.T.);
#171=ADVANCED_FACE('',(#44,#30),#163,.T.);
#172=ADVANCED_FACE('',(#45,#31),#20,.T.);
#173=ADVANCED_FACE('',(#46),#14,.T.);
#174=ADVANCED_FACE('',(#47),#15,.F.);
#175=ADVANCED_FACE('',(#48,#32),#21,.F.);
#176=ADVANCED_FACE('',(#49,#33),#164,.T.);
#177=ADVANCED_FACE('',(#50,#34),#22,.F.);
#178=ADVANCED_FACE('',(#51,#35),#165,.T.);
#179=ADVANCED_FACE('',(#52,#36),#23,.F.);
#180=ADVANCED_FACE('',(#53,#37),#166,.T.);
#181=ADVANCED_FACE('',(#54,#38),#24,.T.);
#182=ADVANCED_FACE('',(#55,#39),#167,.T.);
#183=ADVANCED_FACE('',(#56,#40),#25,.T.);
#184=CLOSED_SHELL('',(#168,#169,#170,#171,#172,#173,#174,#175,#176,#177,
#178,#179,#180,#181,#182,#183));
#185=AXIS2_PLACEMENT_3D('placement',#281,#217,#218);
#186=AXIS2_PLACEMENT_3D('',#282,#219,#220);
#187=AXIS2_PLACEMENT_3D('',#284,#221,#222);
#188=AXIS2_PLACEMENT_3D('',#286,#223,#224);
#189=AXIS2_PLACEMENT_3D('',#287,#225,#226);
#190=AXIS2_PLACEMENT_3D('',#289,#227,#228);
#191=AXIS2_PLACEMENT_3D('',#290,#229,#230);
#192=AXIS2_PLACEMENT_3D('',#292,#231,#232);
#193=AXIS2_PLACEMENT_3D('',#293,#233,#234);
#194=AXIS2_PLACEMENT_3D('',#295,#235,#236);
#195=AXIS2_PLACEMENT_3D('',#296,#237,#238);
#196=AXIS2_PLACEMENT_3D('',#298,#239,#240);
#197=AXIS2_PLACEMENT_3D('',#299,#241,#242);
#198=AXIS2_PLACEMENT_3D('',#300,#243,#244);
#199=AXIS2_PLACEMENT_3D('',#302,#245,#246);
#200=AXIS2_PLACEMENT_3D('',#303,#247,#248);
#201=AXIS2_PLACEMENT_3D('',#305,#249,#250);
#202=AXIS2_PLACEMENT_3D('',#306,#251,#252);
#203=AXIS2_PLACEMENT_3D('',#308,#253,#254);
#204=AXIS2_PLACEMENT_3D('',#309,#255,#256);
#205=AXIS2_PLACEMENT_3D('',#311,#257,#258);
#206=AXIS2_PLACEMENT_3D('',#312,#259,#260);
#207=AXIS2_PLACEMENT_3D('',#314,#261,#262);
#208=AXIS2_PLACEMENT_3D('',#315,#263,#264);
#209=AXIS2_PLACEMENT_3D('',#317,#265,#266);
#210=AXIS2_PLACEMENT_3D('',#318,#267,#268);
#211=AXIS2_PLACEMENT_3D('',#320,#269,#270);
#212=AXIS2_PLACEMENT_3D('',#321,#271,#272);
#213=AXIS2_PLACEMENT_3D('',#323,#273,#274);
#214=AXIS2_PLACEMENT_3D('',#324,#275,#276);
#215=AXIS2_PLACEMENT_3D('',#326,#277,#278);
#216=AXIS2_PLACEMENT_3D('',#327,#279,#280);
#217=DIRECTION('axis',(0.,0.,1.));
#218=DIRECTION('refdir',(1.,0.,0.));
#219=DIRECTION('center_axis',(0.,-1.,0.));
#220=DIRECTION('ref_axis',(0.,0.,-1.));
#221=DIRECTION('center_axis',(0.,1.,0.));
#222=DIRECTION('ref_axis',(1.,0.,0.));
#223=DIRECTION('center_axis',(0.,1.,0.));
#224=DIRECTION('ref_axis',(1.,0.,0.));
#225=DIRECTION('center_axis',(0.,1.,0.));
#226=DIRECTION('ref_axis',(-1.,0.,0.));
#227=DIRECTION('center_axis',(0.,1.,0.));
#228=DIRECTION('ref_axis',(1.,0.,0.));
#229=DIRECTION('center_axis',(0.,1.,0.));
#230=DIRECTION('ref_axis',(-1.,0.,0.));
#231=DIRECTION('center_axis',(0.,1.,0.));
#232=DIRECTION('ref_axis',(1.,0.,0.));
#233=DIRECTION('center_axis',(0.,-1.,0.));
#234=DIRECTION('ref_axis',(0.,0.,-1.));
#235=DIRECTION('center_axis',(0.,1.,0.));
#236=DIRECTION('ref_axis',(1.,0.,0.));
#237=DIRECTION('center_axis',(0.,1.,0.));
#238=DIRECTION('ref_axis',(-1.,0.,0.));
#239=DIRECTION('center_axis',(0.,1.,0.));
#240=DIRECTION('ref_axis',(1.,0.,0.));
#241=DIRECTION('center_axis',(0.,1.,-6.12323399573676E-17));
#242=DIRECTION('ref_axis',(0.,0.,-1.));
#243=DIRECTION('center_axis',(0.,1.,-6.12323399573677E-17));
#244=DIRECTION('ref_axis',(0.,0.,-1.));
#245=DIRECTION('center_axis',(0.,1.,0.));
#246=DIRECTION('ref_axis',(1.,0.,0.));
#247=DIRECTION('center_axis',(0.,1.,0.));
#248=DIRECTION('ref_axis',(-1.,0.,0.));
#249=DIRECTION('center_axis',(0.,1.,0.));
#250=DIRECTION('ref_axis',(1.,0.,0.));
#251=DIRECTION('center_axis',(0.,-1.,0.));
#252=DIRECTION('ref_axis',(0.,0.,-1.));
#253=DIRECTION('center_axis',(0.,1.,0.));
#254=DIRECTION('ref_axis',(1.,0.,0.));
#255=DIRECTION('center_axis',(0.,1.,0.));
#256=DIRECTION('ref_axis',(-1.,0.,0.));
#257=DIRECTION('center_axis',(0.,1.,0.));
#258=DIRECTION('ref_axis',(1.,0.,0.));
#259=DIRECTION('center_axis',(0.,1.,0.));
#260=DIRECTION('ref_axis',(0.,0.,1.));
#261=DIRECTION('center_axis',(0.,1.,0.));
#262=DIRECTION('ref_axis',(1.,0.,0.));
#263=DIRECTION('center_axis',(0.,1.,0.));
#264=DIRECTION('ref_axis',(-1.,0.,0.));
#265=DIRECTION('center_axis',(0.,1.,0.));
#266=DIRECTION('ref_axis',(1.,0.,0.));
#267=DIRECTION('center_axis',(0.,-1.,0.));
#268=DIRECTION('ref_axis',(0.,0.,-1.));
#269=DIRECTION('center_axis',(0.,1.,0.));
#270=DIRECTION('ref_axis',(1.,0.,0.));
#271=DIRECTION('center_axis',(0.,1.,0.));
#272=DIRECTION('ref_axis',(-1.,0.,0.));
#273=DIRECTION('center_axis',(0.,1.,0.));
#274=DIRECTION('ref_axis',(1.,0.,0.));
#275=DIRECTION('center_axis',(0.,-1.,0.));
#276=DIRECTION('ref_axis',(0.,0.,-1.));
#277=DIRECTION('center_axis',(0.,1.,0.));
#278=DIRECTION('ref_axis',(1.,0.,0.));
#279=DIRECTION('center_axis',(0.,1.,0.));
#280=DIRECTION('ref_axis',(-1.,0.,0.));
#281=CARTESIAN_POINT('',(0.,0.,0.));
#282=CARTESIAN_POINT('Origin',(-10.995,11.,0.));
#283=CARTESIAN_POINT('',(-10.995,11.,0.));
#284=CARTESIAN_POINT('Origin',(0.,11.,0.));
#285=CARTESIAN_POINT('',(-10.4775,11.,0.));
#286=CARTESIAN_POINT('Origin',(0.,11.,0.));
#287=CARTESIAN_POINT('Origin',(0.,11.5,0.));
#288=CARTESIAN_POINT('',(-11.995,12.,0.));
#289=CARTESIAN_POINT('Origin',(0.,12.,0.));
#290=CARTESIAN_POINT('Origin',(0.,16.,0.));
#291=CARTESIAN_POINT('',(-11.995,20.,0.));
#292=CARTESIAN_POINT('Origin',(0.,20.,0.));
#293=CARTESIAN_POINT('Origin',(-12.,20.,0.));
#294=CARTESIAN_POINT('',(-12.,20.,0.));
#295=CARTESIAN_POINT('Origin',(0.,20.,0.));
#296=CARTESIAN_POINT('Origin',(0.,43.5,0.));
#297=CARTESIAN_POINT('',(-12.,67.,0.));
#298=CARTESIAN_POINT('Origin',(0.,67.,0.));
#299=CARTESIAN_POINT('Origin',(-1.41898210593242E-14,67.,0.));
#300=CARTESIAN_POINT('Origin',(-1.41898210593242E-14,67.,0.));
#301=CARTESIAN_POINT('',(-8.80000000000001,67.,0.));
#302=CARTESIAN_POINT('Origin',(0.,67.,0.));
#303=CARTESIAN_POINT('Origin',(0.,43.5,0.));
#304=CARTESIAN_POINT('',(-8.8,20.,0.));
#305=CARTESIAN_POINT('Origin',(0.,20.,0.));
#306=CARTESIAN_POINT('Origin',(-9.5,20.,0.));
#307=CARTESIAN_POINT('',(-9.5,20.,0.));
#308=CARTESIAN_POINT('Origin',(0.,20.,0.));
#309=CARTESIAN_POINT('Origin',(0.,16.,0.));
#310=CARTESIAN_POINT('',(-9.5,12.,0.));
#311=CARTESIAN_POINT('Origin',(0.,12.,0.));
#312=CARTESIAN_POINT('Origin',(-8.8,12.,0.));
#313=CARTESIAN_POINT('',(-8.8,12.,0.));
#314=CARTESIAN_POINT('Origin',(0.,12.,0.));
#315=CARTESIAN_POINT('Origin',(0.,6.,0.));
#316=CARTESIAN_POINT('',(-8.8,0.,0.));
#317=CARTESIAN_POINT('Origin',(0.,0.,0.));
#318=CARTESIAN_POINT('Origin',(-9.25,0.,0.));
#319=CARTESIAN_POINT('',(-9.25,0.,0.));
#320=CARTESIAN_POINT('Origin',(0.,0.,0.));
#321=CARTESIAN_POINT('Origin',(0.,0.399999999999998,0.));
#322=CARTESIAN_POINT('',(-9.25,0.799999999999997,0.));
#323=CARTESIAN_POINT('Origin',(0.,0.799999999999997,0.));
#324=CARTESIAN_POINT('Origin',(-10.4775,0.799999999999997,0.));
#325=CARTESIAN_POINT('',(-10.4775,0.799999999999997,0.));
#326=CARTESIAN_POINT('Origin',(0.,0.799999999999997,0.));
#327=CARTESIAN_POINT('Origin',(0.,5.9,0.));
#328=UNCERTAINTY_MEASURE_WITH_UNIT(LENGTH_MEASURE(0.01),#332,
'DISTANCE_ACCURACY_VALUE',
'Maximum model space distance between geometric entities at asserted c
onnectivities');
#329=UNCERTAINTY_MEASURE_WITH_UNIT(LENGTH_MEASURE(1.E-6),#332,
'DISTANCE_ACCURACY_VALUE',
'Maximum model space distance between geometric entities at asserted c
onnectivities');
#330=(
GEOMETRIC_REPRESENTATION_CONTEXT(3)
GLOBAL_UNCERTAINTY_ASSIGNED_CONTEXT((#328))
GLOBAL_UNIT_ASSIGNED_CONTEXT((#332,#335,#333))
REPRESENTATION_CONTEXT('','3D')
);
#331=(
GEOMETRIC_REPRESENTATION_CONTEXT(3)
GLOBAL_UNCERTAINTY_ASSIGNED_CONTEXT((#329))
GLOBAL_UNIT_ASSIGNED_CONTEXT((#332,#335,#333))
REPRESENTATION_CONTEXT('','3D')
);
#332=(
LENGTH_UNIT()
NAMED_UNIT(*)
SI_UNIT(.MILLI.,.METRE.)
);
#333=(
NAMED_UNIT(*)
SI_UNIT($,.STERADIAN.)
SOLID_ANGLE_UNIT()
);
#334=DIMENSIONAL_EXPONENTS(0.,0.,0.,0.,0.,0.,0.);
#335=(
CONVERSION_BASED_UNIT('degree',#337)
NAMED_UNIT(#334)
PLANE_ANGLE_UNIT()
);
#336=(
NAMED_UNIT(*)
PLANE_ANGLE_UNIT()
SI_UNIT($,.RADIAN.)
);
#337=PLANE_ANGLE_MEASURE_WITH_UNIT(PLANE_ANGLE_MEASURE(0.01745329252),#336);
#338=SHAPE_DEFINITION_REPRESENTATION(#339,#340);
#339=PRODUCT_DEFINITION_SHAPE('',$,#342);
#340=SHAPE_REPRESENTATION('',(#185),#330);
#341=PRODUCT_DEFINITION_CONTEXT('part definition',#346,'design');
#342=PRODUCT_DEFINITION('U 12','U 12',#343,#341);
#343=PRODUCT_DEFINITION_FORMATION('',$,#348);
#344=PRODUCT_RELATED_PRODUCT_CATEGORY('U 12','U 12',(#348));
#345=APPLICATION_PROTOCOL_DEFINITION('international standard',
'automotive_design',2009,#346);
#346=APPLICATION_CONTEXT(
'Core Data for Automotive Mechanical Design Process');
#347=PRODUCT_CONTEXT('part definition',#346,'mechanical');
#348=PRODUCT('U 12','U 12',$,(#347));
#349=PRESENTATION_STYLE_ASSIGNMENT((#351));
#350=PRESENTATION_STYLE_ASSIGNMENT((#352));
#351=SURFACE_STYLE_USAGE(.BOTH.,#353);
#352=SURFACE_STYLE_USAGE(.BOTH.,#354);
#353=SURFACE_SIDE_STYLE($,(#355));
#354=SURFACE_SIDE_STYLE($,(#356));
#355=SURFACE_STYLE_FILL_AREA(#357);
#356=SURFACE_STYLE_FILL_AREA(#358);
#357=FILL_AREA_STYLE($,(#359));
#358=FILL_AREA_STYLE($,(#360));
#359=FILL_AREA_STYLE_COLOUR($,#361);
#360=FILL_AREA_STYLE_COLOUR($,#362);
#361=COLOUR_RGB('',0.0196078431372549,0.0196078431372549,0.0196078431372549);
#362=COLOUR_RGB('',0.305882352941176,0.36078431372549,0.580392156862745);
ENDSEC;
END-ISO-10303-21;
