ISO-10303-21;
HEADER;
/* Generated by software containing ST-Developer
 * from STEP Tools, Inc. (www.steptools.com) 
 */
/* OPTION: strings as raw bytes, not using required /X/ escapes */

FILE_DESCRIPTION(
/* description */ ('Unknown'),
/* implementation_level */ '2;1');

FILE_NAME(
/* name */ '050012',
/* time_stamp */ '2019-02-21T10:12:57+01:00',
/* author */ ('Unknown'),
/* organization */ ('Unknown'),
/* preprocessor_version */ 'ST-DEVELOPER v16.7',
/* originating_system */ 'DEX',
/* authorisation */ $);

FILE_SCHEMA (('CONFIG_CONTROL_DESIGN'));
ENDSEC;

DATA;
#10=PROPERTY_DEFINITION_REPRESENTATION(#14,#12);
#11=PROPERTY_DEFINITION_REPRESENTATION(#15,#13);
#12=REPRESENTATION('',(#16),#571);
#13=REPRESENTATION('',(#17),#571);
#14=PROPERTY_DEFINITION('pmi validation property','',#576);
#15=PROPERTY_DEFINITION('pmi validation property','',#576);
#16=VALUE_REPRESENTATION_ITEM('number of annotations',COUNT_MEASURE(0.));
#17=VALUE_REPRESENTATION_ITEM('number of views',COUNT_MEASURE(0.));
#18=SHAPE_REPRESENTATION_RELATIONSHIP('','',#385,#19);
#19=ADVANCED_BREP_SHAPE_REPRESENTATION('',(#383),#571);
#20=CONICAL_SURFACE('',#412,10.515,0.785398163397445);
#21=CONICAL_SURFACE('',#413,9.315,0.785398163397434);
#22=PLANE('',#404);
#23=PLANE('',#410);
#24=PLANE('',#414);
#25=PLANE('',#416);
#26=DEGENERATE_TOROIDAL_SURFACE('',#398,17.384423610877,250.,.T.);
#27=DEGENERATE_TOROIDAL_SURFACE('',#400,17.384423610877,250.,.T.);
#28=DEGENERATE_TOROIDAL_SURFACE('',#418,17.384423610877,248.,.T.);
#29=DEGENERATE_TOROIDAL_SURFACE('',#422,17.384423610877,248.,.T.);
#30=TOROIDAL_SURFACE('',#396,100.,15.);
#31=TOROIDAL_SURFACE('',#403,100.,15.);
#32=TOROIDAL_SURFACE('',#420,100.,13.);
#33=TOROIDAL_SURFACE('',#424,100.,13.);
#34=DRAUGHTING_PRE_DEFINED_COLOUR('blue');
#35=ORIENTED_EDGE('',*,*,#75,.T.);
#36=ORIENTED_EDGE('',*,*,#76,.F.);
#37=ORIENTED_EDGE('',*,*,#77,.T.);
#38=ORIENTED_EDGE('',*,*,#78,.F.);
#39=ORIENTED_EDGE('',*,*,#79,.T.);
#40=ORIENTED_EDGE('',*,*,#80,.F.);
#41=ORIENTED_EDGE('',*,*,#81,.T.);
#42=ORIENTED_EDGE('',*,*,#79,.F.);
#43=ORIENTED_EDGE('',*,*,#82,.F.);
#44=ORIENTED_EDGE('',*,*,#81,.F.);
#45=ORIENTED_EDGE('',*,*,#83,.F.);
#46=ORIENTED_EDGE('',*,*,#84,.T.);
#47=ORIENTED_EDGE('',*,*,#80,.T.);
#48=ORIENTED_EDGE('',*,*,#84,.F.);
#49=ORIENTED_EDGE('',*,*,#85,.T.);
#50=ORIENTED_EDGE('',*,*,#86,.F.);
#51=ORIENTED_EDGE('',*,*,#83,.T.);
#52=ORIENTED_EDGE('',*,*,#86,.T.);
#53=ORIENTED_EDGE('',*,*,#82,.T.);
#54=ORIENTED_EDGE('',*,*,#87,.F.);
#55=ORIENTED_EDGE('',*,*,#88,.T.);
#56=ORIENTED_EDGE('',*,*,#87,.T.);
#57=ORIENTED_EDGE('',*,*,#75,.F.);
#58=ORIENTED_EDGE('',*,*,#85,.F.);
#59=ORIENTED_EDGE('',*,*,#88,.F.);
#60=ORIENTED_EDGE('',*,*,#77,.F.);
#61=ORIENTED_EDGE('',*,*,#89,.T.);
#62=ORIENTED_EDGE('',*,*,#78,.T.);
#63=ORIENTED_EDGE('',*,*,#76,.T.);
#64=ORIENTED_EDGE('',*,*,#90,.T.);
#65=ORIENTED_EDGE('',*,*,#90,.F.);
#66=ORIENTED_EDGE('',*,*,#91,.F.);
#67=ORIENTED_EDGE('',*,*,#91,.T.);
#68=ORIENTED_EDGE('',*,*,#92,.F.);
#69=ORIENTED_EDGE('',*,*,#89,.F.);
#70=ORIENTED_EDGE('',*,*,#93,.T.);
#71=ORIENTED_EDGE('',*,*,#94,.T.);
#72=ORIENTED_EDGE('',*,*,#93,.F.);
#73=ORIENTED_EDGE('',*,*,#92,.T.);
#74=ORIENTED_EDGE('',*,*,#94,.F.);
#75=EDGE_CURVE('',#95,#95,#115,.F.);
#76=EDGE_CURVE('',#96,#96,#116,.F.);
#77=EDGE_CURVE('',#97,#97,#117,.T.);
#78=EDGE_CURVE('',#98,#98,#118,.F.);
#79=EDGE_CURVE('',#99,#99,#119,.T.);
#80=EDGE_CURVE('',#100,#100,#120,.T.);
#81=EDGE_CURVE('',#101,#101,#121,.T.);
#82=EDGE_CURVE('',#102,#102,#122,.F.);
#83=EDGE_CURVE('',#103,#103,#123,.F.);
#84=EDGE_CURVE('',#104,#104,#124,.T.);
#85=EDGE_CURVE('',#105,#105,#125,.T.);
#86=EDGE_CURVE('',#106,#106,#126,.T.);
#87=EDGE_CURVE('',#107,#107,#127,.T.);
#88=EDGE_CURVE('',#108,#108,#128,.F.);
#89=EDGE_CURVE('',#109,#109,#129,.T.);
#90=EDGE_CURVE('',#110,#110,#130,.T.);
#91=EDGE_CURVE('',#111,#111,#131,.T.);
#92=EDGE_CURVE('',#112,#112,#132,.T.);
#93=EDGE_CURVE('',#113,#113,#133,.T.);
#94=EDGE_CURVE('',#114,#114,#134,.T.);
#95=VERTEX_POINT('',#512);
#96=VERTEX_POINT('',#514);
#97=VERTEX_POINT('',#517);
#98=VERTEX_POINT('',#519);
#99=VERTEX_POINT('',#522);
#100=VERTEX_POINT('',#524);
#101=VERTEX_POINT('',#527);
#102=VERTEX_POINT('',#530);
#103=VERTEX_POINT('',#533);
#104=VERTEX_POINT('',#535);
#105=VERTEX_POINT('',#539);
#106=VERTEX_POINT('',#541);
#107=VERTEX_POINT('',#545);
#108=VERTEX_POINT('',#548);
#109=VERTEX_POINT('',#553);
#110=VERTEX_POINT('',#556);
#111=VERTEX_POINT('',#559);
#112=VERTEX_POINT('',#562);
#113=VERTEX_POINT('',#565);
#114=VERTEX_POINT('',#568);
#115=CIRCLE('',#388,9.315);
#116=CIRCLE('',#389,9.315);
#117=CIRCLE('',#391,9.315);
#118=CIRCLE('',#392,9.315);
#119=CIRCLE('',#394,115.);
#120=CIRCLE('',#395,115.);
#121=CIRCLE('',#397,105.273334663136);
#122=CIRCLE('',#399,20.);
#123=CIRCLE('',#401,20.);
#124=CIRCLE('',#402,105.273334663136);
#125=CIRCLE('',#405,10.515);
#126=CIRCLE('',#406,20.);
#127=CIRCLE('',#409,20.);
#128=CIRCLE('',#411,10.515);
#129=CIRCLE('',#415,20.);
#130=CIRCLE('',#417,20.);
#131=CIRCLE('',#419,104.570223374717);
#132=CIRCLE('',#421,113.);
#133=CIRCLE('',#423,104.570223374718);
#134=CIRCLE('',#425,113.);
#135=EDGE_LOOP('',(#35));
#136=EDGE_LOOP('',(#36));
#137=EDGE_LOOP('',(#37));
#138=EDGE_LOOP('',(#38));
#139=EDGE_LOOP('',(#39));
#140=EDGE_LOOP('',(#40));
#141=EDGE_LOOP('',(#41));
#142=EDGE_LOOP('',(#42));
#143=EDGE_LOOP('',(#43));
#144=EDGE_LOOP('',(#44));
#145=EDGE_LOOP('',(#45));
#146=EDGE_LOOP('',(#46));
#147=EDGE_LOOP('',(#47));
#148=EDGE_LOOP('',(#48));
#149=EDGE_LOOP('',(#49));
#150=EDGE_LOOP('',(#50));
#151=EDGE_LOOP('',(#51));
#152=EDGE_LOOP('',(#52));
#153=EDGE_LOOP('',(#53));
#154=EDGE_LOOP('',(#54));
#155=EDGE_LOOP('',(#55));
#156=EDGE_LOOP('',(#56));
#157=EDGE_LOOP('',(#57));
#158=EDGE_LOOP('',(#58));
#159=EDGE_LOOP('',(#59));
#160=EDGE_LOOP('',(#60));
#161=EDGE_LOOP('',(#61));
#162=EDGE_LOOP('',(#62));
#163=EDGE_LOOP('',(#63));
#164=EDGE_LOOP('',(#64));
#165=EDGE_LOOP('',(#65));
#166=EDGE_LOOP('',(#66));
#167=EDGE_LOOP('',(#67));
#168=EDGE_LOOP('',(#68));
#169=EDGE_LOOP('',(#69));
#170=EDGE_LOOP('',(#70));
#171=EDGE_LOOP('',(#71));
#172=EDGE_LOOP('',(#72));
#173=EDGE_LOOP('',(#73));
#174=EDGE_LOOP('',(#74));
#175=FACE_BOUND('',#135,.T.);
#176=FACE_BOUND('',#136,.T.);
#177=FACE_BOUND('',#137,.T.);
#178=FACE_BOUND('',#138,.T.);
#179=FACE_BOUND('',#139,.T.);
#180=FACE_BOUND('',#140,.T.);
#181=FACE_BOUND('',#141,.T.);
#182=FACE_BOUND('',#142,.T.);
#183=FACE_BOUND('',#143,.T.);
#184=FACE_BOUND('',#144,.T.);
#185=FACE_BOUND('',#145,.T.);
#186=FACE_BOUND('',#146,.T.);
#187=FACE_BOUND('',#147,.T.);
#188=FACE_BOUND('',#148,.T.);
#189=FACE_BOUND('',#149,.T.);
#190=FACE_BOUND('',#150,.T.);
#191=FACE_BOUND('',#151,.T.);
#192=FACE_BOUND('',#152,.T.);
#193=FACE_BOUND('',#153,.T.);
#194=FACE_BOUND('',#154,.T.);
#195=FACE_BOUND('',#155,.T.);
#196=FACE_BOUND('',#156,.T.);
#197=FACE_BOUND('',#157,.T.);
#198=FACE_BOUND('',#158,.T.);
#199=FACE_BOUND('',#159,.T.);
#200=FACE_BOUND('',#160,.T.);
#201=FACE_BOUND('',#161,.T.);
#202=FACE_BOUND('',#162,.T.);
#203=FACE_BOUND('',#163,.T.);
#204=FACE_BOUND('',#164,.T.);
#205=FACE_BOUND('',#165,.T.);
#206=FACE_BOUND('',#166,.T.);
#207=FACE_BOUND('',#167,.T.);
#208=FACE_BOUND('',#168,.T.);
#209=FACE_BOUND('',#169,.T.);
#210=FACE_BOUND('',#170,.T.);
#211=FACE_BOUND('',#171,.T.);
#212=FACE_BOUND('',#172,.T.);
#213=FACE_BOUND('',#173,.T.);
#214=FACE_BOUND('',#174,.T.);
#215=CYLINDRICAL_SURFACE('',#387,9.315);
#216=CYLINDRICAL_SURFACE('',#390,9.315);
#217=CYLINDRICAL_SURFACE('',#393,115.);
#218=CYLINDRICAL_SURFACE('',#407,20.);
#219=CYLINDRICAL_SURFACE('',#408,20.);
#220=CYLINDRICAL_SURFACE('',#426,113.);
#221=STYLED_ITEM('',(#241),#362);
#222=STYLED_ITEM('',(#242),#363);
#223=STYLED_ITEM('',(#243),#364);
#224=STYLED_ITEM('',(#244),#365);
#225=STYLED_ITEM('',(#245),#366);
#226=STYLED_ITEM('',(#246),#367);
#227=STYLED_ITEM('',(#247),#368);
#228=STYLED_ITEM('',(#248),#369);
#229=STYLED_ITEM('',(#249),#370);
#230=STYLED_ITEM('',(#250),#371);
#231=STYLED_ITEM('',(#251),#372);
#232=STYLED_ITEM('',(#252),#373);
#233=STYLED_ITEM('',(#253),#374);
#234=STYLED_ITEM('',(#254),#375);
#235=STYLED_ITEM('',(#255),#376);
#236=STYLED_ITEM('',(#256),#377);
#237=STYLED_ITEM('',(#257),#378);
#238=STYLED_ITEM('',(#258),#379);
#239=STYLED_ITEM('',(#259),#380);
#240=STYLED_ITEM('',(#260),#381);
#241=PRESENTATION_STYLE_ASSIGNMENT((#261));
#242=PRESENTATION_STYLE_ASSIGNMENT((#262));
#243=PRESENTATION_STYLE_ASSIGNMENT((#263));
#244=PRESENTATION_STYLE_ASSIGNMENT((#264));
#245=PRESENTATION_STYLE_ASSIGNMENT((#265));
#246=PRESENTATION_STYLE_ASSIGNMENT((#266));
#247=PRESENTATION_STYLE_ASSIGNMENT((#267));
#248=PRESENTATION_STYLE_ASSIGNMENT((#268));
#249=PRESENTATION_STYLE_ASSIGNMENT((#269));
#250=PRESENTATION_STYLE_ASSIGNMENT((#270));
#251=PRESENTATION_STYLE_ASSIGNMENT((#271));
#252=PRESENTATION_STYLE_ASSIGNMENT((#272));
#253=PRESENTATION_STYLE_ASSIGNMENT((#273));
#254=PRESENTATION_STYLE_ASSIGNMENT((#274));
#255=PRESENTATION_STYLE_ASSIGNMENT((#275));
#256=PRESENTATION_STYLE_ASSIGNMENT((#276));
#257=PRESENTATION_STYLE_ASSIGNMENT((#277));
#258=PRESENTATION_STYLE_ASSIGNMENT((#278));
#259=PRESENTATION_STYLE_ASSIGNMENT((#279));
#260=PRESENTATION_STYLE_ASSIGNMENT((#280));
#261=SURFACE_STYLE_USAGE(.BOTH.,#281);
#262=SURFACE_STYLE_USAGE(.BOTH.,#282);
#263=SURFACE_STYLE_USAGE(.BOTH.,#283);
#264=SURFACE_STYLE_USAGE(.BOTH.,#284);
#265=SURFACE_STYLE_USAGE(.BOTH.,#285);
#266=SURFACE_STYLE_USAGE(.BOTH.,#286);
#267=SURFACE_STYLE_USAGE(.BOTH.,#287);
#268=SURFACE_STYLE_USAGE(.BOTH.,#288);
#269=SURFACE_STYLE_USAGE(.BOTH.,#289);
#270=SURFACE_STYLE_USAGE(.BOTH.,#290);
#271=SURFACE_STYLE_USAGE(.BOTH.,#291);
#272=SURFACE_STYLE_USAGE(.BOTH.,#292);
#273=SURFACE_STYLE_USAGE(.BOTH.,#293);
#274=SURFACE_STYLE_USAGE(.BOTH.,#294);
#275=SURFACE_STYLE_USAGE(.BOTH.,#295);
#276=SURFACE_STYLE_USAGE(.BOTH.,#296);
#277=SURFACE_STYLE_USAGE(.BOTH.,#297);
#278=SURFACE_STYLE_USAGE(.BOTH.,#298);
#279=SURFACE_STYLE_USAGE(.BOTH.,#299);
#280=SURFACE_STYLE_USAGE(.BOTH.,#300);
#281=SURFACE_SIDE_STYLE('',(#301));
#282=SURFACE_SIDE_STYLE('',(#302));
#283=SURFACE_SIDE_STYLE('',(#303));
#284=SURFACE_SIDE_STYLE('',(#304));
#285=SURFACE_SIDE_STYLE('',(#305));
#286=SURFACE_SIDE_STYLE('',(#306));
#287=SURFACE_SIDE_STYLE('',(#307));
#288=SURFACE_SIDE_STYLE('',(#308));
#289=SURFACE_SIDE_STYLE('',(#309));
#290=SURFACE_SIDE_STYLE('',(#310));
#291=SURFACE_SIDE_STYLE('',(#311));
#292=SURFACE_SIDE_STYLE('',(#312));
#293=SURFACE_SIDE_STYLE('',(#313));
#294=SURFACE_SIDE_STYLE('',(#314));
#295=SURFACE_SIDE_STYLE('',(#315));
#296=SURFACE_SIDE_STYLE('',(#316));
#297=SURFACE_SIDE_STYLE('',(#317));
#298=SURFACE_SIDE_STYLE('',(#318));
#299=SURFACE_SIDE_STYLE('',(#319));
#300=SURFACE_SIDE_STYLE('',(#320));
#301=SURFACE_STYLE_FILL_AREA(#321);
#302=SURFACE_STYLE_FILL_AREA(#322);
#303=SURFACE_STYLE_FILL_AREA(#323);
#304=SURFACE_STYLE_FILL_AREA(#324);
#305=SURFACE_STYLE_FILL_AREA(#325);
#306=SURFACE_STYLE_FILL_AREA(#326);
#307=SURFACE_STYLE_FILL_AREA(#327);
#308=SURFACE_STYLE_FILL_AREA(#328);
#309=SURFACE_STYLE_FILL_AREA(#329);
#310=SURFACE_STYLE_FILL_AREA(#330);
#311=SURFACE_STYLE_FILL_AREA(#331);
#312=SURFACE_STYLE_FILL_AREA(#332);
#313=SURFACE_STYLE_FILL_AREA(#333);
#314=SURFACE_STYLE_FILL_AREA(#334);
#315=SURFACE_STYLE_FILL_AREA(#335);
#316=SURFACE_STYLE_FILL_AREA(#336);
#317=SURFACE_STYLE_FILL_AREA(#337);
#318=SURFACE_STYLE_FILL_AREA(#338);
#319=SURFACE_STYLE_FILL_AREA(#339);
#320=SURFACE_STYLE_FILL_AREA(#340);
#321=FILL_AREA_STYLE('',(#341));
#322=FILL_AREA_STYLE('',(#342));
#323=FILL_AREA_STYLE('',(#343));
#324=FILL_AREA_STYLE('',(#344));
#325=FILL_AREA_STYLE('',(#345));
#326=FILL_AREA_STYLE('',(#346));
#327=FILL_AREA_STYLE('',(#347));
#328=FILL_AREA_STYLE('',(#348));
#329=FILL_AREA_STYLE('',(#349));
#330=FILL_AREA_STYLE('',(#350));
#331=FILL_AREA_STYLE('',(#351));
#332=FILL_AREA_STYLE('',(#352));
#333=FILL_AREA_STYLE('',(#353));
#334=FILL_AREA_STYLE('',(#354));
#335=FILL_AREA_STYLE('',(#355));
#336=FILL_AREA_STYLE('',(#356));
#337=FILL_AREA_STYLE('',(#357));
#338=FILL_AREA_STYLE('',(#358));
#339=FILL_AREA_STYLE('',(#359));
#340=FILL_AREA_STYLE('',(#360));
#341=FILL_AREA_STYLE_COLOUR('',#361);
#342=FILL_AREA_STYLE_COLOUR('',#361);
#343=FILL_AREA_STYLE_COLOUR('',#34);
#344=FILL_AREA_STYLE_COLOUR('',#34);
#345=FILL_AREA_STYLE_COLOUR('',#34);
#346=FILL_AREA_STYLE_COLOUR('',#34);
#347=FILL_AREA_STYLE_COLOUR('',#34);
#348=FILL_AREA_STYLE_COLOUR('',#34);
#349=FILL_AREA_STYLE_COLOUR('',#34);
#350=FILL_AREA_STYLE_COLOUR('',#34);
#351=FILL_AREA_STYLE_COLOUR('',#34);
#352=FILL_AREA_STYLE_COLOUR('',#34);
#353=FILL_AREA_STYLE_COLOUR('',#34);
#354=FILL_AREA_STYLE_COLOUR('',#34);
#355=FILL_AREA_STYLE_COLOUR('',#34);
#356=FILL_AREA_STYLE_COLOUR('',#34);
#357=FILL_AREA_STYLE_COLOUR('',#34);
#358=FILL_AREA_STYLE_COLOUR('',#34);
#359=FILL_AREA_STYLE_COLOUR('',#34);
#360=FILL_AREA_STYLE_COLOUR('',#34);
#361=COLOUR_RGB('',0.396078497171402,0.941176474094391,0.450980395078659);
#362=ADVANCED_FACE('',(#175,#176),#215,.F.);
#363=ADVANCED_FACE('',(#177,#178),#216,.F.);
#364=ADVANCED_FACE('',(#179,#180),#217,.T.);
#365=ADVANCED_FACE('',(#181,#182),#30,.T.);
#366=ADVANCED_FACE('',(#183,#184),#26,.T.);
#367=ADVANCED_FACE('',(#185,#186),#27,.T.);
#368=ADVANCED_FACE('',(#187,#188),#31,.T.);
#369=ADVANCED_FACE('',(#189,#190),#22,.F.);
#370=ADVANCED_FACE('',(#191,#192),#218,.T.);
#371=ADVANCED_FACE('',(#193,#194),#219,.T.);
#372=ADVANCED_FACE('',(#195,#196),#23,.T.);
#373=ADVANCED_FACE('',(#197,#198),#20,.F.);
#374=ADVANCED_FACE('',(#199,#200),#21,.F.);
#375=ADVANCED_FACE('',(#201,#202),#24,.T.);
#376=ADVANCED_FACE('',(#203,#204),#25,.T.);
#377=ADVANCED_FACE('',(#205,#206),#28,.F.);
#378=ADVANCED_FACE('',(#207,#208),#32,.F.);
#379=ADVANCED_FACE('',(#209,#210),#29,.F.);
#380=ADVANCED_FACE('',(#211,#212),#33,.F.);
#381=ADVANCED_FACE('',(#213,#214),#220,.F.);
#382=CLOSED_SHELL('',(#362,#363,#364,#365,#366,#367,#368,#369,#370,#371,
#372,#373,#374,#375,#376,#377,#378,#379,#380,#381));
#383=MANIFOLD_SOLID_BREP('',#382);
#384=SHAPE_DEFINITION_REPRESENTATION(#576,#385);
#385=SHAPE_REPRESENTATION('050012',(#386),#571);
#386=AXIS2_PLACEMENT_3D('',#509,#427,#428);
#387=AXIS2_PLACEMENT_3D('',#510,#429,#430);
#388=AXIS2_PLACEMENT_3D('',#511,#431,#432);
#389=AXIS2_PLACEMENT_3D('',#513,#433,#434);
#390=AXIS2_PLACEMENT_3D('',#515,#435,#436);
#391=AXIS2_PLACEMENT_3D('',#516,#437,#438);
#392=AXIS2_PLACEMENT_3D('',#518,#439,#440);
#393=AXIS2_PLACEMENT_3D('',#520,#441,#442);
#394=AXIS2_PLACEMENT_3D('',#521,#443,#444);
#395=AXIS2_PLACEMENT_3D('',#523,#445,#446);
#396=AXIS2_PLACEMENT_3D('',#525,#447,#448);
#397=AXIS2_PLACEMENT_3D('',#526,#449,#450);
#398=AXIS2_PLACEMENT_3D('',#528,#451,#452);
#399=AXIS2_PLACEMENT_3D('',#529,#453,#454);
#400=AXIS2_PLACEMENT_3D('',#531,#455,#456);
#401=AXIS2_PLACEMENT_3D('',#532,#457,#458);
#402=AXIS2_PLACEMENT_3D('',#534,#459,#460);
#403=AXIS2_PLACEMENT_3D('',#536,#461,#462);
#404=AXIS2_PLACEMENT_3D('',#537,#463,#464);
#405=AXIS2_PLACEMENT_3D('',#538,#465,#466);
#406=AXIS2_PLACEMENT_3D('',#540,#467,#468);
#407=AXIS2_PLACEMENT_3D('',#542,#469,#470);
#408=AXIS2_PLACEMENT_3D('',#543,#471,#472);
#409=AXIS2_PLACEMENT_3D('',#544,#473,#474);
#410=AXIS2_PLACEMENT_3D('',#546,#475,#476);
#411=AXIS2_PLACEMENT_3D('',#547,#477,#478);
#412=AXIS2_PLACEMENT_3D('',#549,#479,#480);
#413=AXIS2_PLACEMENT_3D('',#550,#481,#482);
#414=AXIS2_PLACEMENT_3D('',#551,#483,#484);
#415=AXIS2_PLACEMENT_3D('',#552,#485,#486);
#416=AXIS2_PLACEMENT_3D('',#554,#487,#488);
#417=AXIS2_PLACEMENT_3D('',#555,#489,#490);
#418=AXIS2_PLACEMENT_3D('',#557,#491,#492);
#419=AXIS2_PLACEMENT_3D('',#558,#493,#494);
#420=AXIS2_PLACEMENT_3D('',#560,#495,#496);
#421=AXIS2_PLACEMENT_3D('',#561,#497,#498);
#422=AXIS2_PLACEMENT_3D('',#563,#499,#500);
#423=AXIS2_PLACEMENT_3D('',#564,#501,#502);
#424=AXIS2_PLACEMENT_3D('',#566,#503,#504);
#425=AXIS2_PLACEMENT_3D('',#567,#505,#506);
#426=AXIS2_PLACEMENT_3D('',#569,#507,#508);
#427=DIRECTION('',(0.,0.,1.));
#428=DIRECTION('',(1.,0.,0.));
#429=DIRECTION('',(0.,1.,0.));
#430=DIRECTION('',(0.,0.,1.));
#431=DIRECTION('',(0.,1.,0.));
#432=DIRECTION('',(0.,0.,1.));
#433=DIRECTION('',(0.,1.,0.));
#434=DIRECTION('',(0.,0.,1.));
#435=DIRECTION('',(0.,1.,0.));
#436=DIRECTION('',(0.,0.,1.));
#437=DIRECTION('',(0.,1.,0.));
#438=DIRECTION('',(0.,0.,1.));
#439=DIRECTION('',(0.,-1.,0.));
#440=DIRECTION('',(0.,0.,-1.));
#441=DIRECTION('',(0.,1.,0.));
#442=DIRECTION('',(0.,0.,1.));
#443=DIRECTION('',(-6.12303176911189E-17,-1.,-6.12303176911189E-17));
#444=DIRECTION('',(0.,6.12303176911189E-17,-1.));
#445=DIRECTION('',(6.12303176911189E-17,-1.,6.12303176911189E-17));
#446=DIRECTION('',(0.,-6.12303176911189E-17,-1.));
#447=DIRECTION('',(-6.12303176911189E-17,-1.,-6.12303176911189E-17));
#448=DIRECTION('',(0.,6.12303176911189E-17,-1.));
#449=DIRECTION('',(-6.12303176911189E-17,-1.,-6.12303176911189E-17));
#450=DIRECTION('',(0.,6.12303176911189E-17,-1.));
#451=DIRECTION('',(-6.12303176911189E-17,-1.,-6.12303176911189E-17));
#452=DIRECTION('',(0.,6.12303176911189E-17,-1.));
#453=DIRECTION('',(-6.12303176911189E-17,-1.,-6.12303176911189E-17));
#454=DIRECTION('',(0.,6.12303176911189E-17,-1.));
#455=DIRECTION('',(6.12303176911189E-17,-1.,6.12303176911189E-17));
#456=DIRECTION('',(0.,-6.12303176911189E-17,-1.));
#457=DIRECTION('',(-6.12303176911189E-17,1.,-6.12303176911189E-17));
#458=DIRECTION('',(0.,6.12303176911189E-17,1.));
#459=DIRECTION('',(6.12303176911189E-17,-1.,6.12303176911189E-17));
#460=DIRECTION('',(0.,-6.12303176911189E-17,-1.));
#461=DIRECTION('',(6.12303176911189E-17,-1.,6.12303176911189E-17));
#462=DIRECTION('',(0.,-6.12303176911189E-17,-1.));
#463=DIRECTION('',(0.,1.,0.));
#464=DIRECTION('',(0.,0.,1.));
#465=DIRECTION('',(0.,1.,0.));
#466=DIRECTION('',(0.,0.,1.));
#467=DIRECTION('',(0.,1.,0.));
#468=DIRECTION('',(1.,0.,0.));
#469=DIRECTION('',(0.,1.,0.));
#470=DIRECTION('',(0.,0.,1.));
#471=DIRECTION('',(0.,1.,0.));
#472=DIRECTION('',(0.,0.,1.));
#473=DIRECTION('',(0.,1.,0.));
#474=DIRECTION('',(1.,0.,0.));
#475=DIRECTION('',(0.,1.,0.));
#476=DIRECTION('',(0.,0.,1.));
#477=DIRECTION('',(0.,1.,0.));
#478=DIRECTION('',(0.,0.,1.));
#479=DIRECTION('',(0.,-1.,0.));
#480=DIRECTION('',(0.,0.,-1.));
#481=DIRECTION('',(0.,1.,0.));
#482=DIRECTION('',(0.,0.,1.));
#483=DIRECTION('',(0.,-1.,0.));
#484=DIRECTION('',(0.,0.,-1.));
#485=DIRECTION('',(-6.12303176911189E-17,-1.,-6.12303176911189E-17));
#486=DIRECTION('',(0.,6.12303176911189E-17,-1.));
#487=DIRECTION('',(0.,1.,0.));
#488=DIRECTION('',(0.,0.,1.));
#489=DIRECTION('',(-6.12303176911189E-17,1.,-6.12303176911189E-17));
#490=DIRECTION('',(0.,6.12303176911189E-17,1.));
#491=DIRECTION('',(6.12303176911189E-17,-1.,6.12303176911189E-17));
#492=DIRECTION('',(0.,-6.12303176911189E-17,-1.));
#493=DIRECTION('',(6.12303176911189E-17,-1.,6.12303176911189E-17));
#494=DIRECTION('',(0.,-6.12303176911189E-17,-1.));
#495=DIRECTION('',(6.12303176911189E-17,-1.,6.12303176911189E-17));
#496=DIRECTION('',(0.,-6.12303176911189E-17,-1.));
#497=DIRECTION('',(6.12303176911189E-17,-1.,6.12303176911189E-17));
#498=DIRECTION('',(0.,-6.12303176911189E-17,-1.));
#499=DIRECTION('',(-6.12303176911189E-17,-1.,-6.12303176911189E-17));
#500=DIRECTION('',(0.,6.12303176911189E-17,-1.));
#501=DIRECTION('',(-6.12303176911189E-17,-1.,-6.12303176911189E-17));
#502=DIRECTION('',(0.,6.12303176911189E-17,-1.));
#503=DIRECTION('',(-6.12303176911189E-17,-1.,-6.12303176911189E-17));
#504=DIRECTION('',(0.,6.12303176911189E-17,-1.));
#505=DIRECTION('',(-6.12303176911189E-17,-1.,-6.12303176911189E-17));
#506=DIRECTION('',(0.,6.12303176911189E-17,-1.));
#507=DIRECTION('',(0.,1.,0.));
#508=DIRECTION('',(0.,0.,1.));
#509=CARTESIAN_POINT('',(0.,0.,0.));
#510=CARTESIAN_POINT('',(6.61287431064084E-15,-307.645917470144,0.));
#511=CARTESIAN_POINT('',(6.61287431064084E-15,-183.8,0.));
#512=CARTESIAN_POINT('',(6.61287431064084E-15,-183.8,9.315));
#513=CARTESIAN_POINT('',(6.61287431064084E-15,-172.986964663884,0.));
#514=CARTESIAN_POINT('',(6.61287431064084E-15,-172.986964663884,9.315));
#515=CARTESIAN_POINT('',(6.61287431064084E-15,-307.645917470144,0.));
#516=CARTESIAN_POINT('',(6.61287431064084E-15,183.8,0.));
#517=CARTESIAN_POINT('',(6.61287431064084E-15,183.8,9.315));
#518=CARTESIAN_POINT('',(6.61287431064084E-15,172.986964663884,0.));
#519=CARTESIAN_POINT('',(6.61287431064084E-15,172.986964663884,-9.315));
#520=CARTESIAN_POINT('',(0.,-140.,0.));
#521=CARTESIAN_POINT('',(8.87839606521224E-15,145.,1.25522151266794E-14));
#522=CARTESIAN_POINT('',(8.87839606521224E-15,145.,-115.));
#523=CARTESIAN_POINT('',(8.87839606521224E-15,-145.,1.25522151266794E-14));
#524=CARTESIAN_POINT('',(8.87839606521224E-15,-145.,-115.));
#525=CARTESIAN_POINT('',(8.87839606521224E-15,145.,1.38777878078145E-14));
#526=CARTESIAN_POINT('',(9.73822309632554E-15,159.042504816826,1.34120421577927E-14));
#527=CARTESIAN_POINT('',(9.73822309632554E-15,159.042504816826,-105.273334663135));
#528=CARTESIAN_POINT('',(-4.59222742222955E-15,-74.9992421302695,0.));
#529=CARTESIAN_POINT('',(1.07145141950445E-14,174.987075015595,1.53067416172741E-14));
#530=CARTESIAN_POINT('',(1.07145141950445E-14,174.987075015595,-20.));
#531=CARTESIAN_POINT('',(-4.59222742222955E-15,74.9992421302695,0.));
#532=CARTESIAN_POINT('',(1.07145141950445E-14,-174.987075015595,1.53067416172741E-14));
#533=CARTESIAN_POINT('',(1.07145141950445E-14,-174.987075015595,20.));
#534=CARTESIAN_POINT('',(9.73822309632554E-15,-159.042504816826,1.34120421577927E-14));
#535=CARTESIAN_POINT('',(9.73822309632554E-15,-159.042504816826,-105.273334663136));
#536=CARTESIAN_POINT('',(8.87839606521224E-15,-145.,1.38777878078145E-14));
#537=CARTESIAN_POINT('',(0.,-185.,0.));
#538=CARTESIAN_POINT('',(6.61287431064084E-15,-185.,0.));
#539=CARTESIAN_POINT('',(6.61287431064084E-15,-185.,10.515));
#540=CARTESIAN_POINT('',(0.,-185.,0.));
#541=CARTESIAN_POINT('',(20.,-185.,0.));
#542=CARTESIAN_POINT('',(0.,-185.,0.));
#543=CARTESIAN_POINT('',(0.,-185.,0.));
#544=CARTESIAN_POINT('',(0.,185.,0.));
#545=CARTESIAN_POINT('',(20.,185.,0.));
#546=CARTESIAN_POINT('',(0.,185.,0.));
#547=CARTESIAN_POINT('',(6.61287431064084E-15,185.,0.));
#548=CARTESIAN_POINT('',(6.61287431064084E-15,185.,10.515));
#549=CARTESIAN_POINT('',(6.61287431064084E-15,-185.,0.));
#550=CARTESIAN_POINT('',(6.61287431064084E-15,183.8,0.));
#551=CARTESIAN_POINT('',(6.93889390390723E-15,172.986964663884,0.));
#552=CARTESIAN_POINT('',(1.0592046802792E-14,172.986964663884,1.51842742250215E-14));
#553=CARTESIAN_POINT('',(1.0592046802792E-14,172.986964663884,-20.));
#554=CARTESIAN_POINT('',(-20.,-172.986964663884,0.));
#555=CARTESIAN_POINT('',(1.0592046802792E-14,-172.986964663884,1.51842742250215E-14));
#556=CARTESIAN_POINT('',(1.0592046802792E-14,-172.986964663884,20.));
#557=CARTESIAN_POINT('',(-4.59222742222955E-15,74.9992421302695,0.));
#558=CARTESIAN_POINT('',(9.6235794921771E-15,-157.170170841249,1.32973985536442E-14));
#559=CARTESIAN_POINT('',(9.6235794921771E-15,-157.170170841249,-104.570223374717));
#560=CARTESIAN_POINT('',(8.87839606521224E-15,-145.,1.38777878078145E-14));
#561=CARTESIAN_POINT('',(8.87839606521224E-15,-145.,1.25522151266794E-14));
#562=CARTESIAN_POINT('',(8.87839606521224E-15,-145.,-113.));
#563=CARTESIAN_POINT('',(-4.59222742222955E-15,-74.9992421302695,0.));
#564=CARTESIAN_POINT('',(9.6235794921771E-15,157.170170841249,1.32973985536442E-14));
#565=CARTESIAN_POINT('',(9.6235794921771E-15,157.170170841249,-104.570223374718));
#566=CARTESIAN_POINT('',(8.87839606521224E-15,145.,1.38777878078145E-14));
#567=CARTESIAN_POINT('',(8.87839606521224E-15,145.,1.25522151266794E-14));
#568=CARTESIAN_POINT('',(8.87839606521224E-15,145.,-113.));
#569=CARTESIAN_POINT('',(0.,-140.,0.));
#570=MECHANICAL_DESIGN_GEOMETRIC_PRESENTATION_REPRESENTATION('',(#221,#222,
#223,#224,#225,#226,#227,#228,#229,#230,#231,#232,#233,#234,#235,#236,#237,
#238,#239,#240),#571);
#571=(
GEOMETRIC_REPRESENTATION_CONTEXT(3)
GLOBAL_UNCERTAINTY_ASSIGNED_CONTEXT((#572))
GLOBAL_UNIT_ASSIGNED_CONTEXT((#575,#574,#573))
REPRESENTATION_CONTEXT('050012','TOP_LEVEL_ASSEMBLY_PART')
);
#572=UNCERTAINTY_MEASURE_WITH_UNIT(LENGTH_MEASURE(0.005),#575,
'DISTANCE_ACCURACY_VALUE','Maximum Tolerance applied to model');
#573=(
NAMED_UNIT(*)
SI_UNIT($,.STERADIAN.)
SOLID_ANGLE_UNIT()
);
#574=(
NAMED_UNIT(*)
PLANE_ANGLE_UNIT()
SI_UNIT($,.RADIAN.)
);
#575=(
LENGTH_UNIT()
NAMED_UNIT(*)
SI_UNIT(.MILLI.,.METRE.)
);
#576=PRODUCT_DEFINITION_SHAPE('','',#577);
#577=PRODUCT_DEFINITION('','',#579,#578);
#578=DESIGN_CONTEXT('',#585,'design');
#579=PRODUCT_DEFINITION_FORMATION_WITH_SPECIFIED_SOURCE('','',#581,
 .NOT_KNOWN.);
#580=PRODUCT_RELATED_PRODUCT_CATEGORY('','',(#581));
#581=PRODUCT('050012','050012','050012',(#583));
#582=PRODUCT_CATEGORY('','');
#583=MECHANICAL_CONTEXT('',#585,'mechanical');
#584=APPLICATION_PROTOCOL_DEFINITION('international standard',
'config_control_design',2010,#585);
#585=APPLICATION_CONTEXT(
'configuration controlled 3D designs of mechanical parts and assemblie
s');
ENDSEC;
END-ISO-10303-21;
