ISO-10303-21;
HEADER;
FILE_DESCRIPTION( ( 'STEP AP214' ), '1' );
FILE_NAME( 'C:/Users/azilaghe/AppData/Local/Temp/psolqas_17272_14.stp', '2020-12-01T17:14:32', ( 'License CC BY-ND 4.0' ), ( 'CADENAS' ), ' ', 'PARTsolutions', ' ' );
FILE_SCHEMA( ( 'AUTOMOTIVE_DESIGN { 1 0 10303 214 1 1 1 1 }' ) );
ENDSEC;
DATA;
#1 = MECHANICAL_DESIGN_GEOMETRIC_PRESENTATION_REPRESENTATION( ' ', ( #10, #11, #12, #13, #14, #15, #16, #17, #18, #19, #20, #21, #22, #23, #24, #25 ), #6 );
#2 = PRODUCT_DEFINITION_CONTEXT( '', #26, 'design' );
#3 = APPLICATION_PROTOCOL_DEFINITION( 'international standard', 'automotive_design', 2001, #26 );
#4 = PRODUCT_CATEGORY_RELATIONSHIP( 'NONE', 'NONE', #27, #28 );
#5 = SHAPE_DEFINITION_REPRESENTATION( #29, #30 );
#6 =  ( GEOMETRIC_REPRESENTATION_CONTEXT( 3 )GLOBAL_UNCERTAINTY_ASSIGNED_CONTEXT( ( #33 ) )GLOBAL_UNIT_ASSIGNED_CONTEXT( ( #35, #36, #37 ) )REPRESENTATION_CONTEXT( 'NONE', 'WORKSPACE' ) );
#10 = STYLED_ITEM( '', ( #39 ), #40 );
#11 = STYLED_ITEM( '', ( #41 ), #42 );
#12 = STYLED_ITEM( '', ( #43 ), #44 );
#13 = STYLED_ITEM( '', ( #45 ), #46 );
#14 = STYLED_ITEM( '', ( #47 ), #48 );
#15 = STYLED_ITEM( '', ( #49 ), #50 );
#16 = STYLED_ITEM( '', ( #51 ), #52 );
#17 = STYLED_ITEM( '', ( #53 ), #54 );
#18 = STYLED_ITEM( '', ( #55 ), #56 );
#19 = STYLED_ITEM( '', ( #57 ), #58 );
#20 = STYLED_ITEM( '', ( #59 ), #60 );
#21 = STYLED_ITEM( '', ( #61 ), #62 );
#22 = STYLED_ITEM( '', ( #63 ), #64 );
#23 = STYLED_ITEM( '', ( #65 ), #66 );
#24 = STYLED_ITEM( '', ( #67 ), #68 );
#25 = STYLED_ITEM( '', ( #69 ), #70 );
#26 = APPLICATION_CONTEXT( 'core data for automotive mechanical design processes' );
#27 = PRODUCT_CATEGORY( 'part', 'NONE' );
#28 = PRODUCT_RELATED_PRODUCT_CATEGORY( 'detail', ' ', ( #71 ) );
#29 = PRODUCT_DEFINITION_SHAPE( 'NONE', 'NONE', #72 );
#30 = ADVANCED_BREP_SHAPE_REPRESENTATION( 'NONE', ( #73, #74 ), #6 );
#33 = UNCERTAINTY_MEASURE_WITH_UNIT( LENGTH_MEASURE( 1.00000000000000E-06 ), #35, '', '' );
#35 =  ( CONVERSION_BASED_UNIT( 'METRE', #77 )LENGTH_UNIT(  )NAMED_UNIT( #80 ) );
#36 =  ( NAMED_UNIT( #82 )PLANE_ANGLE_UNIT(  )SI_UNIT( $, .RADIAN. ) );
#37 =  ( NAMED_UNIT( #82 )SI_UNIT( $, .STERADIAN. )SOLID_ANGLE_UNIT(  ) );
#39 = PRESENTATION_STYLE_ASSIGNMENT( ( #88 ) );
#40 = ADVANCED_FACE( 'NONE', ( #89, #90 ), #91, .T. );
#41 = PRESENTATION_STYLE_ASSIGNMENT( ( #92 ) );
#42 = ADVANCED_FACE( 'NONE', ( #93, #94 ), #95, .T. );
#43 = PRESENTATION_STYLE_ASSIGNMENT( ( #96 ) );
#44 = ADVANCED_FACE( 'NONE', ( #97, #98 ), #99, .F. );
#45 = PRESENTATION_STYLE_ASSIGNMENT( ( #100 ) );
#46 = ADVANCED_FACE( 'NONE', ( #101, #102 ), #103, .F. );
#47 = PRESENTATION_STYLE_ASSIGNMENT( ( #104 ) );
#48 = ADVANCED_FACE( 'NONE', ( #105, #106 ), #107, .T. );
#49 = PRESENTATION_STYLE_ASSIGNMENT( ( #108 ) );
#50 = ADVANCED_FACE( 'NONE', ( #109 ), #110, .T. );
#51 = PRESENTATION_STYLE_ASSIGNMENT( ( #111 ) );
#52 = ADVANCED_FACE( 'NONE', ( #112, #113 ), #114, .T. );
#53 = PRESENTATION_STYLE_ASSIGNMENT( ( #115 ) );
#54 = ADVANCED_FACE( 'NONE', ( #116, #117 ), #118, .T. );
#55 = PRESENTATION_STYLE_ASSIGNMENT( ( #119 ) );
#56 = ADVANCED_FACE( 'NONE', ( #120, #121 ), #122, .T. );
#57 = PRESENTATION_STYLE_ASSIGNMENT( ( #123 ) );
#58 = ADVANCED_FACE( 'NONE', ( #124, #125 ), #126, .T. );
#59 = PRESENTATION_STYLE_ASSIGNMENT( ( #127 ) );
#60 = ADVANCED_FACE( 'NONE', ( #128, #129 ), #130, .F. );
#61 = PRESENTATION_STYLE_ASSIGNMENT( ( #131 ) );
#62 = ADVANCED_FACE( 'NONE', ( #132, #133 ), #134, .T. );
#63 = PRESENTATION_STYLE_ASSIGNMENT( ( #135 ) );
#64 = ADVANCED_FACE( 'NONE', ( #136, #137 ), #138, .T. );
#65 = PRESENTATION_STYLE_ASSIGNMENT( ( #139 ) );
#66 = ADVANCED_FACE( 'NONE', ( #140, #141 ), #142, .T. );
#67 = PRESENTATION_STYLE_ASSIGNMENT( ( #143 ) );
#68 = ADVANCED_FACE( 'NONE', ( #144, #145 ), #146, .T. );
#69 = PRESENTATION_STYLE_ASSIGNMENT( ( #147 ) );
#70 = ADVANCED_FACE( 'NONE', ( #148, #149 ), #150, .T. );
#71 = PRODUCT( 'NONE', 'NONE', 'PART-NONE-DESC', ( #151 ) );
#72 = PRODUCT_DEFINITION( 'NONE', 'NONE', #152, #2 );
#73 = MANIFOLD_SOLID_BREP( 'NONE', #153 );
#74 = AXIS2_PLACEMENT_3D( '', #154, #155, #156 );
#77 = LENGTH_MEASURE_WITH_UNIT( LENGTH_MEASURE( 1.00000000000000 ), #157 );
#80 = DIMENSIONAL_EXPONENTS( 1.00000000000000, 0.000000000000000, 0.000000000000000, 0.000000000000000, 0.000000000000000, 0.000000000000000, 0.000000000000000 );
#82 = DIMENSIONAL_EXPONENTS( 0.000000000000000, 0.000000000000000, 0.000000000000000, 0.000000000000000, 0.000000000000000, 0.000000000000000, 0.000000000000000 );
#88 = SURFACE_STYLE_USAGE( .BOTH., #158 );
#89 = FACE_OUTER_BOUND( '', #159, .T. );
#90 = FACE_BOUND( '', #160, .T. );
#91 = CONICAL_SURFACE( '', #161, 0.00700000000000000, 1.04719755120000 );
#92 = SURFACE_STYLE_USAGE( .BOTH., #162 );
#93 = FACE_OUTER_BOUND( '', #163, .T. );
#94 = FACE_BOUND( '', #164, .T. );
#95 = CONICAL_SURFACE( '', #165, 0.00575000000000000, 1.04719755120000 );
#96 = SURFACE_STYLE_USAGE( .BOTH., #166 );
#97 = FACE_OUTER_BOUND( '', #167, .T. );
#98 = FACE_BOUND( '', #168, .T. );
#99 = CONICAL_SURFACE( '', #169, 0.00550000000000000, 1.18682389140000 );
#100 = SURFACE_STYLE_USAGE( .BOTH., #170 );
#101 = FACE_OUTER_BOUND( '', #171, .T. );
#102 = FACE_BOUND( '', #172, .T. );
#103 = CONICAL_SURFACE( '', #173, 0.00600000000000000, 0.785398163400000 );
#104 = SURFACE_STYLE_USAGE( .BOTH., #174 );
#105 = FACE_OUTER_BOUND( '', #175, .T. );
#106 = FACE_OUTER_BOUND( '', #176, .T. );
#107 = CYLINDRICAL_SURFACE( '', #177, 0.00660000000000000 );
#108 = SURFACE_STYLE_USAGE( .BOTH., #178 );
#109 = FACE_OUTER_BOUND( '', #179, .T. );
#110 = PLANE( '', #180 );
#111 = SURFACE_STYLE_USAGE( .BOTH., #181 );
#112 = FACE_OUTER_BOUND( '', #182, .T. );
#113 = FACE_BOUND( '', #183, .T. );
#114 = PLANE( '', #184 );
#115 = SURFACE_STYLE_USAGE( .BOTH., #185 );
#116 = FACE_OUTER_BOUND( '', #186, .T. );
#117 = FACE_BOUND( '', #187, .T. );
#118 = CONICAL_SURFACE( '', #188, 0.00700000000000000, 0.785398163400000 );
#119 = SURFACE_STYLE_USAGE( .BOTH., #189 );
#120 = FACE_OUTER_BOUND( '', #190, .T. );
#121 = FACE_OUTER_BOUND( '', #191, .T. );
#122 = CYLINDRICAL_SURFACE( '', #192, 0.00700000000000000 );
#123 = SURFACE_STYLE_USAGE( .BOTH., #193 );
#124 = FACE_OUTER_BOUND( '', #194, .T. );
#125 = FACE_BOUND( '', #195, .T. );
#126 = CONICAL_SURFACE( '', #196, 0.00700000000000000, 1.13446401380000 );
#127 = SURFACE_STYLE_USAGE( .BOTH., #197 );
#128 = FACE_OUTER_BOUND( '', #198, .T. );
#129 = FACE_OUTER_BOUND( '', #199, .T. );
#130 = CYLINDRICAL_SURFACE( '', #200, 0.00550000000000000 );
#131 = SURFACE_STYLE_USAGE( .BOTH., #201 );
#132 = FACE_OUTER_BOUND( '', #202, .T. );
#133 = FACE_OUTER_BOUND( '', #203, .T. );
#134 = CYLINDRICAL_SURFACE( '', #204, 0.00575000000000000 );
#135 = SURFACE_STYLE_USAGE( .BOTH., #205 );
#136 = FACE_OUTER_BOUND( '', #206, .T. );
#137 = FACE_BOUND( '', #207, .T. );
#138 = PLANE( '', #208 );
#139 = SURFACE_STYLE_USAGE( .BOTH., #209 );
#140 = FACE_OUTER_BOUND( '', #210, .T. );
#141 = FACE_OUTER_BOUND( '', #211, .T. );
#142 = CYLINDRICAL_SURFACE( '', #212, 0.00700000000000000 );
#143 = SURFACE_STYLE_USAGE( .BOTH., #213 );
#144 = FACE_OUTER_BOUND( '', #214, .T. );
#145 = FACE_BOUND( '', #215, .T. );
#146 = CONICAL_SURFACE( '', #216, 0.00670000000000000, 0.785398163400000 );
#147 = SURFACE_STYLE_USAGE( .BOTH., #217 );
#148 = FACE_OUTER_BOUND( '', #218, .T. );
#149 = FACE_OUTER_BOUND( '', #219, .T. );
#150 = CYLINDRICAL_SURFACE( '', #220, 0.00700000000000000 );
#151 = PRODUCT_CONTEXT( '', #26, 'mechanical' );
#152 = PRODUCT_DEFINITION_FORMATION_WITH_SPECIFIED_SOURCE( ' ', 'NONE', #71, .NOT_KNOWN. );
#153 = CLOSED_SHELL( '', ( #44, #60, #62, #68, #56, #46, #70, #40, #66, #48, #58, #64, #42, #50, #54, #52 ) );
#154 = CARTESIAN_POINT( '', ( 0.000000000000000, 0.000000000000000, 0.000000000000000 ) );
#155 = DIRECTION( '', ( 0.000000000000000, 0.000000000000000, 1.00000000000000 ) );
#156 = DIRECTION( '', ( 1.00000000000000, 0.000000000000000, 0.000000000000000 ) );
#157 =  ( LENGTH_UNIT(  )NAMED_UNIT( #80 )SI_UNIT( $, .METRE. ) );
#158 = SURFACE_SIDE_STYLE( '', ( #222 ) );
#159 = EDGE_LOOP( '', ( #223 ) );
#160 = EDGE_LOOP( '', ( #224 ) );
#161 = AXIS2_PLACEMENT_3D( '', #225, #226, #227 );
#162 = SURFACE_SIDE_STYLE( '', ( #228 ) );
#163 = EDGE_LOOP( '', ( #229 ) );
#164 = EDGE_LOOP( '', ( #230 ) );
#165 = AXIS2_PLACEMENT_3D( '', #231, #232, #233 );
#166 = SURFACE_SIDE_STYLE( '', ( #234 ) );
#167 = EDGE_LOOP( '', ( #235 ) );
#168 = VERTEX_LOOP( '', #236 );
#169 = AXIS2_PLACEMENT_3D( '', #237, #238, #239 );
#170 = SURFACE_SIDE_STYLE( '', ( #240 ) );
#171 = EDGE_LOOP( '', ( #241 ) );
#172 = EDGE_LOOP( '', ( #242 ) );
#173 = AXIS2_PLACEMENT_3D( '', #243, #244, #245 );
#174 = SURFACE_SIDE_STYLE( '', ( #246 ) );
#175 = EDGE_LOOP( '', ( #247 ) );
#176 = EDGE_LOOP( '', ( #248 ) );
#177 = AXIS2_PLACEMENT_3D( '', #249, #250, #251 );
#178 = SURFACE_SIDE_STYLE( '', ( #252 ) );
#179 = EDGE_LOOP( '', ( #253 ) );
#180 = AXIS2_PLACEMENT_3D( '', #254, #255, #256 );
#181 = SURFACE_SIDE_STYLE( '', ( #257 ) );
#182 = EDGE_LOOP( '', ( #258 ) );
#183 = EDGE_LOOP( '', ( #259 ) );
#184 = AXIS2_PLACEMENT_3D( '', #260, #261, #262 );
#185 = SURFACE_SIDE_STYLE( '', ( #263 ) );
#186 = EDGE_LOOP( '', ( #264 ) );
#187 = EDGE_LOOP( '', ( #265 ) );
#188 = AXIS2_PLACEMENT_3D( '', #266, #267, #268 );
#189 = SURFACE_SIDE_STYLE( '', ( #269 ) );
#190 = EDGE_LOOP( '', ( #270 ) );
#191 = EDGE_LOOP( '', ( #271 ) );
#192 = AXIS2_PLACEMENT_3D( '', #272, #273, #274 );
#193 = SURFACE_SIDE_STYLE( '', ( #275 ) );
#194 = EDGE_LOOP( '', ( #276 ) );
#195 = EDGE_LOOP( '', ( #277 ) );
#196 = AXIS2_PLACEMENT_3D( '', #278, #279, #280 );
#197 = SURFACE_SIDE_STYLE( '', ( #281 ) );
#198 = EDGE_LOOP( '', ( #282 ) );
#199 = EDGE_LOOP( '', ( #283 ) );
#200 = AXIS2_PLACEMENT_3D( '', #284, #285, #286 );
#201 = SURFACE_SIDE_STYLE( '', ( #287 ) );
#202 = EDGE_LOOP( '', ( #288 ) );
#203 = EDGE_LOOP( '', ( #289 ) );
#204 = AXIS2_PLACEMENT_3D( '', #290, #291, #292 );
#205 = SURFACE_SIDE_STYLE( '', ( #293 ) );
#206 = EDGE_LOOP( '', ( #294 ) );
#207 = EDGE_LOOP( '', ( #295 ) );
#208 = AXIS2_PLACEMENT_3D( '', #296, #297, #298 );
#209 = SURFACE_SIDE_STYLE( '', ( #299 ) );
#210 = EDGE_LOOP( '', ( #300 ) );
#211 = EDGE_LOOP( '', ( #301 ) );
#212 = AXIS2_PLACEMENT_3D( '', #302, #303, #304 );
#213 = SURFACE_SIDE_STYLE( '', ( #305 ) );
#214 = EDGE_LOOP( '', ( #306 ) );
#215 = EDGE_LOOP( '', ( #307 ) );
#216 = AXIS2_PLACEMENT_3D( '', #308, #309, #310 );
#217 = SURFACE_SIDE_STYLE( '', ( #311 ) );
#218 = EDGE_LOOP( '', ( #312 ) );
#219 = EDGE_LOOP( '', ( #313 ) );
#220 = AXIS2_PLACEMENT_3D( '', #314, #315, #316 );
#222 = SURFACE_STYLE_FILL_AREA( #317 );
#223 = ORIENTED_EDGE( '', *, *, #318, .F. );
#224 = ORIENTED_EDGE( '', *, *, #319, .T. );
#225 = CARTESIAN_POINT( '', ( 0.000000000000000, 0.0280000000000000, 0.000000000000000 ) );
#226 = DIRECTION( '', ( 0.000000000000000, -1.00000000000000, -0.000000000000000 ) );
#227 = DIRECTION( '', ( 0.000000000000000, 0.000000000000000, -1.00000000000000 ) );
#228 = SURFACE_STYLE_FILL_AREA( #320 );
#229 = ORIENTED_EDGE( '', *, *, #321, .T. );
#230 = ORIENTED_EDGE( '', *, *, #322, .F. );
#231 = CARTESIAN_POINT( '', ( 0.000000000000000, 0.0372783121635130, 0.000000000000000 ) );
#232 = DIRECTION( '', ( -0.000000000000000, 1.00000000000000, -0.000000000000000 ) );
#233 = DIRECTION( '', ( 0.000000000000000, 0.000000000000000, 1.00000000000000 ) );
#234 = SURFACE_STYLE_FILL_AREA( #323 );
#235 = ORIENTED_EDGE( '', *, *, #324, .T. );
#236 = VERTEX_POINT( 'NONE', #325 );
#237 = CARTESIAN_POINT( '', ( 0.000000000000000, 0.0260000000000000, 0.000000000000000 ) );
#238 = DIRECTION( '', ( 0.000000000000000, -1.00000000000000, -0.000000000000000 ) );
#239 = DIRECTION( '', ( 0.000000000000000, 0.000000000000000, -1.00000000000000 ) );
#240 = SURFACE_STYLE_FILL_AREA( #326 );
#241 = ORIENTED_EDGE( '', *, *, #327, .T. );
#242 = ORIENTED_EDGE( '', *, *, #328, .F. );
#243 = CARTESIAN_POINT( '', ( 0.000000000000000, 0.000000000000000, 0.000000000000000 ) );
#244 = DIRECTION( '', ( 0.000000000000000, -1.00000000000000, -0.000000000000000 ) );
#245 = DIRECTION( '', ( 0.000000000000000, 0.000000000000000, -1.00000000000000 ) );
#246 = SURFACE_STYLE_FILL_AREA( #329 );
#247 = ORIENTED_EDGE( '', *, *, #330, .F. );
#248 = ORIENTED_EDGE( '', *, *, #331, .T. );
#249 = CARTESIAN_POINT( '', ( 0.000000000000000, 0.000000000000000, 0.000000000000000 ) );
#250 = DIRECTION( '', ( -0.000000000000000, 1.00000000000000, -0.000000000000000 ) );
#251 = DIRECTION( '', ( 0.000000000000000, 0.000000000000000, -1.00000000000000 ) );
#252 = SURFACE_STYLE_FILL_AREA( #332 );
#253 = ORIENTED_EDGE( '', *, *, #333, .F. );
#254 = CARTESIAN_POINT( '', ( 0.000000000000000, 0.0400000000000000, 0.000000000000000 ) );
#255 = DIRECTION( '', ( -0.000000000000000, 1.00000000000000, 0.000000000000000 ) );
#256 = DIRECTION( '', ( 1.00000000000000, 0.000000000000000, 0.000000000000000 ) );
#257 = SURFACE_STYLE_FILL_AREA( #334 );
#258 = ORIENTED_EDGE( '', *, *, #335, .T. );
#259 = ORIENTED_EDGE( '', *, *, #331, .F. );
#260 = CARTESIAN_POINT( '', ( 0.00700000000000000, 0.0102865230632620, 0.000000000000000 ) );
#261 = DIRECTION( '', ( 0.000000000000000, -1.00000000000000, 0.000000000000000 ) );
#262 = DIRECTION( '', ( 0.000000000000000, 0.000000000000000, -1.00000000000000 ) );
#263 = SURFACE_STYLE_FILL_AREA( #336 );
#264 = ORIENTED_EDGE( '', *, *, #337, .F. );
#265 = ORIENTED_EDGE( '', *, *, #333, .T. );
#266 = CARTESIAN_POINT( '', ( 0.000000000000000, 0.0397000000000000, 0.000000000000000 ) );
#267 = DIRECTION( '', ( 0.000000000000000, -1.00000000000000, -0.000000000000000 ) );
#268 = DIRECTION( '', ( 0.000000000000000, 0.000000000000000, -1.00000000000000 ) );
#269 = SURFACE_STYLE_FILL_AREA( #338 );
#270 = ORIENTED_EDGE( '', *, *, #339, .F. );
#271 = ORIENTED_EDGE( '', *, *, #340, .T. );
#272 = CARTESIAN_POINT( '', ( 0.000000000000000, 0.000000000000000, 0.000000000000000 ) );
#273 = DIRECTION( '', ( -0.000000000000000, 1.00000000000000, -0.000000000000000 ) );
#274 = DIRECTION( '', ( 0.000000000000000, 0.000000000000000, -1.00000000000000 ) );
#275 = SURFACE_STYLE_FILL_AREA( #341 );
#276 = ORIENTED_EDGE( '', *, *, #340, .F. );
#277 = ORIENTED_EDGE( '', *, *, #330, .T. );
#278 = CARTESIAN_POINT( '', ( 0.000000000000000, 0.00830000000000000, 0.000000000000000 ) );
#279 = DIRECTION( '', ( 0.000000000000000, -1.00000000000000, -0.000000000000000 ) );
#280 = DIRECTION( '', ( 0.000000000000000, 0.000000000000000, -1.00000000000000 ) );
#281 = SURFACE_STYLE_FILL_AREA( #342 );
#282 = ORIENTED_EDGE( '', *, *, #328, .T. );
#283 = ORIENTED_EDGE( '', *, *, #324, .F. );
#284 = CARTESIAN_POINT( '', ( 0.000000000000000, -0.00182088149443059, 0.000000000000000 ) );
#285 = DIRECTION( '', ( -0.000000000000000, 1.00000000000000, -0.000000000000000 ) );
#286 = DIRECTION( '', ( 0.000000000000000, 0.000000000000000, -1.00000000000000 ) );
#287 = SURFACE_STYLE_FILL_AREA( #343 );
#288 = ORIENTED_EDGE( '', *, *, #319, .F. );
#289 = ORIENTED_EDGE( '', *, *, #322, .T. );
#290 = CARTESIAN_POINT( '', ( 0.000000000000000, 0.000000000000000, 0.000000000000000 ) );
#291 = DIRECTION( '', ( -0.000000000000000, 1.00000000000000, -0.000000000000000 ) );
#292 = DIRECTION( '', ( 0.000000000000000, 0.000000000000000, -1.00000000000000 ) );
#293 = SURFACE_STYLE_FILL_AREA( #344 );
#294 = ORIENTED_EDGE( '', *, *, #345, .T. );
#295 = ORIENTED_EDGE( '', *, *, #327, .F. );
#296 = CARTESIAN_POINT( '', ( 0.00670000000000000, 1.22464679914736E-20, 0.000000000000000 ) );
#297 = DIRECTION( '', ( 0.000000000000000, -1.00000000000000, 0.000000000000000 ) );
#298 = DIRECTION( '', ( 0.000000000000000, 0.000000000000000, -1.00000000000000 ) );
#299 = SURFACE_STYLE_FILL_AREA( #346 );
#300 = ORIENTED_EDGE( '', *, *, #321, .F. );
#301 = ORIENTED_EDGE( '', *, *, #337, .T. );
#302 = CARTESIAN_POINT( '', ( 0.000000000000000, 0.000000000000000, 0.000000000000000 ) );
#303 = DIRECTION( '', ( -0.000000000000000, 1.00000000000000, -0.000000000000000 ) );
#304 = DIRECTION( '', ( 0.000000000000000, 0.000000000000000, -1.00000000000000 ) );
#305 = SURFACE_STYLE_FILL_AREA( #347 );
#306 = ORIENTED_EDGE( '', *, *, #339, .T. );
#307 = ORIENTED_EDGE( '', *, *, #345, .F. );
#308 = CARTESIAN_POINT( '', ( 0.000000000000000, 2.44929359829472E-20, 0.000000000000000 ) );
#309 = DIRECTION( '', ( -0.000000000000000, 1.00000000000000, -0.000000000000000 ) );
#310 = DIRECTION( '', ( 0.000000000000000, 0.000000000000000, 1.00000000000000 ) );
#311 = SURFACE_STYLE_FILL_AREA( #348 );
#312 = ORIENTED_EDGE( '', *, *, #335, .F. );
#313 = ORIENTED_EDGE( '', *, *, #318, .T. );
#314 = CARTESIAN_POINT( '', ( 0.000000000000000, 0.000000000000000, 0.000000000000000 ) );
#315 = DIRECTION( '', ( -0.000000000000000, 1.00000000000000, -0.000000000000000 ) );
#316 = DIRECTION( '', ( 0.000000000000000, 0.000000000000000, -1.00000000000000 ) );
#317 = FILL_AREA_STYLE( '', ( #349 ) );
#318 = EDGE_CURVE( 'NONE', #350, #350, #351, .T. );
#319 = EDGE_CURVE( 'NONE', #352, #352, #353, .T. );
#320 = FILL_AREA_STYLE( '', ( #354 ) );
#321 = EDGE_CURVE( 'NONE', #355, #355, #356, .T. );
#322 = EDGE_CURVE( 'NONE', #357, #357, #358, .T. );
#323 = FILL_AREA_STYLE( '', ( #359 ) );
#324 = EDGE_CURVE( 'NONE', #360, #360, #361, .T. );
#325 = CARTESIAN_POINT( '', ( -2.67924425713577E-20, 0.0282221442420933, 0.000000000000000 ) );
#326 = FILL_AREA_STYLE( '', ( #362 ) );
#327 = EDGE_CURVE( 'NONE', #363, #363, #364, .T. );
#328 = EDGE_CURVE( 'NONE', #365, #365, #366, .T. );
#329 = FILL_AREA_STYLE( '', ( #367 ) );
#330 = EDGE_CURVE( 'NONE', #368, #368, #369, .T. );
#331 = EDGE_CURVE( 'NONE', #370, #370, #371, .T. );
#332 = FILL_AREA_STYLE( '', ( #372 ) );
#333 = EDGE_CURVE( 'NONE', #373, #373, #374, .T. );
#334 = FILL_AREA_STYLE( '', ( #375 ) );
#335 = EDGE_CURVE( 'NONE', #376, #376, #377, .T. );
#336 = FILL_AREA_STYLE( '', ( #378 ) );
#337 = EDGE_CURVE( 'NONE', #379, #379, #380, .T. );
#338 = FILL_AREA_STYLE( '', ( #381 ) );
#339 = EDGE_CURVE( 'NONE', #382, #382, #383, .T. );
#340 = EDGE_CURVE( 'NONE', #384, #384, #385, .T. );
#341 = FILL_AREA_STYLE( '', ( #386 ) );
#342 = FILL_AREA_STYLE( '', ( #387 ) );
#343 = FILL_AREA_STYLE( '', ( #388 ) );
#344 = FILL_AREA_STYLE( '', ( #389 ) );
#345 = EDGE_CURVE( 'NONE', #390, #390, #391, .T. );
#346 = FILL_AREA_STYLE( '', ( #392 ) );
#347 = FILL_AREA_STYLE( '', ( #393 ) );
#348 = FILL_AREA_STYLE( '', ( #394 ) );
#349 = FILL_AREA_STYLE_COLOUR( '', #395 );
#350 = VERTEX_POINT( '', #396 );
#351 = CIRCLE( '', #397, 0.00700000000000000 );
#352 = VERTEX_POINT( '', #398 );
#353 = CIRCLE( '', #399, 0.00575000000000000 );
#354 = FILL_AREA_STYLE_COLOUR( '', #400 );
#355 = VERTEX_POINT( '', #401 );
#356 = CIRCLE( '', #402, 0.00700000000000000 );
#357 = VERTEX_POINT( '', #403 );
#358 = CIRCLE( '', #404, 0.00575000000000000 );
#359 = FILL_AREA_STYLE_COLOUR( '', #405 );
#360 = VERTEX_POINT( '', #406 );
#361 = CIRCLE( '', #407, 0.00550000000000000 );
#362 = FILL_AREA_STYLE_COLOUR( '', #408 );
#363 = VERTEX_POINT( '', #409 );
#364 = CIRCLE( '', #410, 0.00600000000000000 );
#365 = VERTEX_POINT( '', #411 );
#366 = CIRCLE( '', #412, 0.00550000000000000 );
#367 = FILL_AREA_STYLE_COLOUR( '', #413 );
#368 = VERTEX_POINT( '', #414 );
#369 = CIRCLE( '', #415, 0.00660000000000000 );
#370 = VERTEX_POINT( '', #416 );
#371 = CIRCLE( '', #417, 0.00660000000000000 );
#372 = FILL_AREA_STYLE_COLOUR( '', #418 );
#373 = VERTEX_POINT( '', #419 );
#374 = CIRCLE( '', #420, 0.00670000000000000 );
#375 = FILL_AREA_STYLE_COLOUR( '', #421 );
#376 = VERTEX_POINT( '', #422 );
#377 = CIRCLE( '', #423, 0.00700000000000000 );
#378 = FILL_AREA_STYLE_COLOUR( '', #424 );
#379 = VERTEX_POINT( '', #425 );
#380 = CIRCLE( '', #426, 0.00700000000000000 );
#381 = FILL_AREA_STYLE_COLOUR( '', #427 );
#382 = VERTEX_POINT( '', #428 );
#383 = CIRCLE( '', #429, 0.00700000000000000 );
#384 = VERTEX_POINT( '', #430 );
#385 = CIRCLE( '', #431, 0.00700000000000000 );
#386 = FILL_AREA_STYLE_COLOUR( '', #432 );
#387 = FILL_AREA_STYLE_COLOUR( '', #433 );
#388 = FILL_AREA_STYLE_COLOUR( '', #434 );
#389 = FILL_AREA_STYLE_COLOUR( '', #435 );
#390 = VERTEX_POINT( '', #436 );
#391 = CIRCLE( '', #437, 0.00670000000000000 );
#392 = FILL_AREA_STYLE_COLOUR( '', #438 );
#393 = FILL_AREA_STYLE_COLOUR( '', #439 );
#394 = FILL_AREA_STYLE_COLOUR( '', #440 );
#395 = COLOUR_RGB( '', 0.752941191200000, 0.752941191200000, 0.752941191200000 );
#396 = CARTESIAN_POINT( '', ( 0.000000000000000, 0.0280000000000003, -0.00700000000000026 ) );
#397 = AXIS2_PLACEMENT_3D( '', #441, #442, #443 );
#398 = CARTESIAN_POINT( '', ( 0.000000000000000, 0.0287216878364873, -0.00575000000000026 ) );
#399 = AXIS2_PLACEMENT_3D( '', #444, #445, #446 );
#400 = COLOUR_RGB( '', 0.752941191200000, 0.752941191200000, 0.752941191200000 );
#401 = CARTESIAN_POINT( '', ( 0.000000000000000, 0.0380000000000003, -0.00700000000000026 ) );
#402 = AXIS2_PLACEMENT_3D( '', #447, #448, #449 );
#403 = CARTESIAN_POINT( '', ( 0.000000000000000, 0.0372783121635132, -0.00575000000000026 ) );
#404 = AXIS2_PLACEMENT_3D( '', #450, #451, #452 );
#405 = COLOUR_RGB( '', 0.752941191200000, 0.752941191200000, 0.752941191200000 );
#406 = CARTESIAN_POINT( '', ( 0.000000000000000, 0.0260000000000003, -0.00550000000000025 ) );
#407 = AXIS2_PLACEMENT_3D( '', #453, #454, #455 );
#408 = COLOUR_RGB( '', 0.752941191200000, 0.752941191200000, 0.752941191200000 );
#409 = CARTESIAN_POINT( '', ( 0.000000000000000, 0.000000000000000, -0.00600000000000025 ) );
#410 = AXIS2_PLACEMENT_3D( '', #456, #457, #458 );
#411 = CARTESIAN_POINT( '', ( 0.000000000000000, 0.000500000000000254, -0.00550000000000025 ) );
#412 = AXIS2_PLACEMENT_3D( '', #459, #460, #461 );
#413 = COLOUR_RGB( '', 0.752941191200000, 0.752941191200000, 0.752941191200000 );
#414 = CARTESIAN_POINT( '', ( 0.000000000000000, 0.00848652306326226, -0.00660000000000025 ) );
#415 = AXIS2_PLACEMENT_3D( '', #462, #463, #464 );
#416 = CARTESIAN_POINT( '', ( 0.000000000000000, 0.0102865230632623, -0.00660000000000025 ) );
#417 = AXIS2_PLACEMENT_3D( '', #465, #466, #467 );
#418 = COLOUR_RGB( '', 0.752941191200000, 0.752941191200000, 0.752941191200000 );
#419 = CARTESIAN_POINT( '', ( 0.000000000000000, 0.0400000000000003, -0.00670000000000026 ) );
#420 = AXIS2_PLACEMENT_3D( '', #468, #469, #470 );
#421 = COLOUR_RGB( '', 0.752941191200000, 0.752941191200000, 0.752941191200000 );
#422 = CARTESIAN_POINT( '', ( 0.000000000000000, 0.0102865230632623, -0.00700000000000026 ) );
#423 = AXIS2_PLACEMENT_3D( '', #471, #472, #473 );
#424 = COLOUR_RGB( '', 0.752941191200000, 0.752941191200000, 0.752941191200000 );
#425 = CARTESIAN_POINT( '', ( 0.000000000000000, 0.0397000000000003, -0.00700000000000026 ) );
#426 = AXIS2_PLACEMENT_3D( '', #474, #475, #476 );
#427 = COLOUR_RGB( '', 0.752941191200000, 0.752941191200000, 0.752941191200000 );
#428 = CARTESIAN_POINT( '', ( 0.000000000000000, 0.000300000000000254, -0.00700000000000026 ) );
#429 = AXIS2_PLACEMENT_3D( '', #477, #478, #479 );
#430 = CARTESIAN_POINT( '', ( 0.000000000000000, 0.00830000000000026, -0.00700000000000026 ) );
#431 = AXIS2_PLACEMENT_3D( '', #480, #481, #482 );
#432 = COLOUR_RGB( '', 0.752941191200000, 0.752941191200000, 0.752941191200000 );
#433 = COLOUR_RGB( '', 0.752941191200000, 0.752941191200000, 0.752941191200000 );
#434 = COLOUR_RGB( '', 0.752941191200000, 0.752941191200000, 0.752941191200000 );
#435 = COLOUR_RGB( '', 0.752941191200000, 0.752941191200000, 0.752941191200000 );
#436 = CARTESIAN_POINT( '', ( 0.000000000000000, 2.54024492935983E-16, -0.00670000000000026 ) );
#437 = AXIS2_PLACEMENT_3D( '', #483, #484, #485 );
#438 = COLOUR_RGB( '', 0.752941191200000, 0.752941191200000, 0.752941191200000 );
#439 = COLOUR_RGB( '', 0.752941191200000, 0.752941191200000, 0.752941191200000 );
#440 = COLOUR_RGB( '', 0.752941191200000, 0.752941191200000, 0.752941191200000 );
#441 = CARTESIAN_POINT( '', ( 0.000000000000000, 0.0280000000000003, 0.000000000000000 ) );
#442 = DIRECTION( '', ( 0.000000000000000, -1.00000000000000, 0.000000000000000 ) );
#443 = DIRECTION( '', ( 0.000000000000000, 0.000000000000000, -1.00000000000000 ) );
#444 = CARTESIAN_POINT( '', ( 0.000000000000000, 0.0287216878364873, 0.000000000000000 ) );
#445 = DIRECTION( '', ( 0.000000000000000, -1.00000000000000, 0.000000000000000 ) );
#446 = DIRECTION( '', ( 0.000000000000000, 0.000000000000000, -1.00000000000000 ) );
#447 = CARTESIAN_POINT( '', ( 0.000000000000000, 0.0380000000000003, 0.000000000000000 ) );
#448 = DIRECTION( '', ( 0.000000000000000, -1.00000000000000, 0.000000000000000 ) );
#449 = DIRECTION( '', ( 0.000000000000000, 0.000000000000000, -1.00000000000000 ) );
#450 = CARTESIAN_POINT( '', ( 0.000000000000000, 0.0372783121635132, 0.000000000000000 ) );
#451 = DIRECTION( '', ( 0.000000000000000, -1.00000000000000, 0.000000000000000 ) );
#452 = DIRECTION( '', ( 0.000000000000000, 0.000000000000000, -1.00000000000000 ) );
#453 = CARTESIAN_POINT( '', ( 0.000000000000000, 0.0260000000000003, 0.000000000000000 ) );
#454 = DIRECTION( '', ( 0.000000000000000, -1.00000000000000, 0.000000000000000 ) );
#455 = DIRECTION( '', ( 0.000000000000000, 0.000000000000000, -1.00000000000000 ) );
#456 = CARTESIAN_POINT( '', ( 0.000000000000000, 0.000000000000000, 0.000000000000000 ) );
#457 = DIRECTION( '', ( 0.000000000000000, -1.00000000000000, 0.000000000000000 ) );
#458 = DIRECTION( '', ( 0.000000000000000, 0.000000000000000, -1.00000000000000 ) );
#459 = CARTESIAN_POINT( '', ( 0.000000000000000, 0.000500000000000254, 0.000000000000000 ) );
#460 = DIRECTION( '', ( 0.000000000000000, -1.00000000000000, 0.000000000000000 ) );
#461 = DIRECTION( '', ( 0.000000000000000, 0.000000000000000, -1.00000000000000 ) );
#462 = CARTESIAN_POINT( '', ( 0.000000000000000, 0.00848652306326226, 0.000000000000000 ) );
#463 = DIRECTION( '', ( 0.000000000000000, -1.00000000000000, 0.000000000000000 ) );
#464 = DIRECTION( '', ( 0.000000000000000, 0.000000000000000, -1.00000000000000 ) );
#465 = CARTESIAN_POINT( '', ( 0.000000000000000, 0.0102865230632623, 0.000000000000000 ) );
#466 = DIRECTION( '', ( 0.000000000000000, -1.00000000000000, 0.000000000000000 ) );
#467 = DIRECTION( '', ( 0.000000000000000, 0.000000000000000, -1.00000000000000 ) );
#468 = CARTESIAN_POINT( '', ( 0.000000000000000, 0.0400000000000003, 0.000000000000000 ) );
#469 = DIRECTION( '', ( 0.000000000000000, -1.00000000000000, 0.000000000000000 ) );
#470 = DIRECTION( '', ( 0.000000000000000, 0.000000000000000, -1.00000000000000 ) );
#471 = CARTESIAN_POINT( '', ( 0.000000000000000, 0.0102865230632623, 0.000000000000000 ) );
#472 = DIRECTION( '', ( 0.000000000000000, -1.00000000000000, 0.000000000000000 ) );
#473 = DIRECTION( '', ( 0.000000000000000, 0.000000000000000, -1.00000000000000 ) );
#474 = CARTESIAN_POINT( '', ( 0.000000000000000, 0.0397000000000003, 0.000000000000000 ) );
#475 = DIRECTION( '', ( 0.000000000000000, -1.00000000000000, 0.000000000000000 ) );
#476 = DIRECTION( '', ( 0.000000000000000, 0.000000000000000, -1.00000000000000 ) );
#477 = CARTESIAN_POINT( '', ( 0.000000000000000, 0.000300000000000254, 0.000000000000000 ) );
#478 = DIRECTION( '', ( 0.000000000000000, -1.00000000000000, 0.000000000000000 ) );
#479 = DIRECTION( '', ( 0.000000000000000, 0.000000000000000, -1.00000000000000 ) );
#480 = CARTESIAN_POINT( '', ( 0.000000000000000, 0.00830000000000026, 0.000000000000000 ) );
#481 = DIRECTION( '', ( 0.000000000000000, -1.00000000000000, 0.000000000000000 ) );
#482 = DIRECTION( '', ( 0.000000000000000, 0.000000000000000, -1.00000000000000 ) );
#483 = CARTESIAN_POINT( '', ( 0.000000000000000, 2.54024492935983E-16, 0.000000000000000 ) );
#484 = DIRECTION( '', ( 0.000000000000000, -1.00000000000000, 0.000000000000000 ) );
#485 = DIRECTION( '', ( 0.000000000000000, 0.000000000000000, -1.00000000000000 ) );
ENDSEC;
END-ISO-10303-21;
